  0
SECTION
  2
HEADER
  9
$ACADVER
  1
AC1015
  9
$ACADMAINTVER
 70
     6
  9
$DWGCODEPAGE
  3
ANSI_1254
  9
$INSBASE
 10
0.0
 20
0.0
 30
0.0
  9
$EXTMIN
 10
0.0
 20
0.0
 30
0.0
  9
$EXTMAX
 10
279.4
 20
215.9
 30
0.0
  9
$LIMMIN
 10
0.0
 20
0.0
  9
$LIMMAX
 10
279.4
 20
215.9
  9
$ORTHOMODE
 70
     0
  9
$REGENMODE
 70
     1
  9
$FILLMODE
 70
     1
  9
$QTEXTMODE
 70
     0
  9
$MIRRTEXT
 70
     1
  9
$LTSCALE
 40
1.0
  9
$ATTMODE
 70
     1
  9
$TEXTSIZE
 40
3.5
  9
$TRACEWID
 40
1.0
  9
$TEXTSTYLE
  7
Standard
  9
$CLAYER
  8
0
  9
$CELTYPE
  6
ByLayer
  9
$CECOLOR
 62
   256
  9
$CELTSCALE
 40
1.0
  9
$DISPSILH
 70
     0
  9
$DIMSCALE
 40
1.0
  9
$DIMASZ
 40
3.5
  9
$DIMEXO
 40
1.0
  9
$DIMDLI
 40
3.75
  9
$DIMRND
 40
0.0
  9
$DIMDLE
 40
0.0
  9
$DIMEXE
 40
1.0
  9
$DIMTP
 40
0.0
  9
$DIMTM
 40
0.0
  9
$DIMTXT
 40
3.5
  9
$DIMCEN
 40
2.5
  9
$DIMTSZ
 40
0.0
  9
$DIMTOL
 70
     0
  9
$DIMLIM
 70
     0
  9
$DIMTIH
 70
     1
  9
$DIMTOH
 70
     1
  9
$DIMSE1
 70
     0
  9
$DIMSE2
 70
     0
  9
$DIMTAD
 70
     1
  9
$DIMZIN
 70
     0
  9
$DIMBLK
  1

  9
$DIMASO
 70
     1
  9
$DIMSHO
 70
     1
  9
$DIMPOST
  1

  9
$DIMAPOST
  1

  9
$DIMALT
 70
     0
  9
$DIMALTD
 70
     3
  9
$DIMALTF
 40
0.0393700787
  9
$DIMLFAC
 40
1.0
  9
$DIMTOFL
 70
     1
  9
$DIMTVP
 40
0.0
  9
$DIMTIX
 70
     0
  9
$DIMSOXD
 70
     0
  9
$DIMSAH
 70
     0
  9
$DIMBLK1
  1

  9
$DIMBLK2
  1

  9
$DIMSTYLE
  2
ISO-25
  9
$DIMCLRD
 70
     0
  9
$DIMCLRE
 70
     0
  9
$DIMCLRT
 70
     0
  9
$DIMTFAC
 40
1.0
  9
$DIMGAP
 40
1.524
  9
$DIMJUST
 70
     0
  9
$DIMSD1
 70
     0
  9
$DIMSD2
 70
     0
  9
$DIMTOLJ
 70
     0
  9
$DIMTZIN
 70
     0
  9
$DIMALTZ
 70
     0
  9
$DIMALTTZ
 70
     0
  9
$DIMUPT
 70
     0
  9
$DIMDEC
 70
     2
  9
$DIMTDEC
 70
     2
  9
$DIMALTU
 70
     2
  9
$DIMALTTD
 70
     3
  9
$DIMTXSTY
  7
Standard
  9
$DIMAUNIT
 70
     0
  9
$DIMADEC
 70
     2
  9
$DIMALTRND
 40
0.0
  9
$DIMAZIN
 70
     0
  9
$DIMDSEP
 70
    44
  9
$DIMATFIT
 70
     3
  9
$DIMFRAC
 70
     0
  9
$DIMLDRBLK
  1

  9
$DIMLUNIT
 70
     2
  9
$DIMLWD
 70
    -2
  9
$DIMLWE
 70
    -2
  9
$DIMTMOVE
 70
     0
  9
$LUNITS
 70
     2
  9
$LUPREC
 70
     2
  9
$SKETCHINC
 40
1.0
  9
$FILLETRAD
 40
10.0
  9
$AUNITS
 70
     0
  9
$AUPREC
 70
     2
  9
$MENU
  1
.
  9
$ELEVATION
 40
0.0
  9
$PELEVATION
 40
0.0
  9
$THICKNESS
 40
0.0
  9
$LIMCHECK
 70
     0
  9
$CHAMFERA
 40
0.0
  9
$CHAMFERB
 40
0.0
  9
$CHAMFERC
 40
0.0
  9
$CHAMFERD
 40
0.0
  9
$SKPOLY
 70
     0
  9
$TDCREATE
 40
2459741.58861493
  9
$TDUCREATE
 40
2459741.46361493
  9
$TDUPDATE
 40
2459741.588616898
  9
$TDUUPDATE
 40
2459741.463616898
  9
$TDINDWG
 40
0.0000000116
  9
$TDUSRTIMER
 40
0.0000000116
  9
$USRTIMER
 70
     1
  9
$ANGBASE
 50
0.0
  9
$ANGDIR
 70
     0
  9
$PDMODE
 70
     0
  9
$PDSIZE
 40
-1.0
  9
$PLINEWID
 40
0.0
  9
$SPLFRAME
 70
     0
  9
$SPLINETYPE
 70
     6
  9
$SPLINESEGS
 70
     8
  9
$HANDSEED
  5
12A
  9
$SURFTAB1
 70
     6
  9
$SURFTAB2
 70
     6
  9
$SURFTYPE
 70
     6
  9
$SURFU
 70
     6
  9
$SURFV
 70
     6
  9
$UCSBASE
  2

  9
$UCSNAME
  2

  9
$UCSORG
 10
0.0
 20
0.0
 30
0.0
  9
$UCSXDIR
 10
1.0
 20
0.0
 30
0.0
  9
$UCSYDIR
 10
0.0
 20
1.0
 30
0.0
  9
$UCSORTHOREF
  2

  9
$UCSORTHOVIEW
 70
     0
  9
$UCSORGTOP
 10
0.0
 20
0.0
 30
0.0
  9
$UCSORGBOTTOM
 10
0.0
 20
0.0
 30
0.0
  9
$UCSORGLEFT
 10
0.0
 20
0.0
 30
0.0
  9
$UCSORGRIGHT
 10
0.0
 20
0.0
 30
0.0
  9
$UCSORGFRONT
 10
0.0
 20
0.0
 30
0.0
  9
$UCSORGBACK
 10
0.0
 20
0.0
 30
0.0
  9
$PUCSBASE
  2

  9
$PUCSNAME
  2

  9
$PUCSORG
 10
0.0
 20
0.0
 30
0.0
  9
$PUCSXDIR
 10
1.0
 20
0.0
 30
0.0
  9
$PUCSYDIR
 10
0.0
 20
1.0
 30
0.0
  9
$PUCSORTHOREF
  2

  9
$PUCSORTHOVIEW
 70
     0
  9
$PUCSORGTOP
 10
0.0
 20
0.0
 30
0.0
  9
$PUCSORGBOTTOM
 10
0.0
 20
0.0
 30
0.0
  9
$PUCSORGLEFT
 10
0.0
 20
0.0
 30
0.0
  9
$PUCSORGRIGHT
 10
0.0
 20
0.0
 30
0.0
  9
$PUCSORGFRONT
 10
0.0
 20
0.0
 30
0.0
  9
$PUCSORGBACK
 10
0.0
 20
0.0
 30
0.0
  9
$USERI1
 70
     0
  9
$USERI2
 70
     0
  9
$USERI3
 70
     0
  9
$USERI4
 70
     0
  9
$USERI5
 70
     0
  9
$USERR1
 40
0.0
  9
$USERR2
 40
0.0
  9
$USERR3
 40
0.0
  9
$USERR4
 40
0.0
  9
$USERR5
 40
0.0
  9
$WORLDVIEW
 70
     1
  9
$SHADEDGE
 70
     3
  9
$SHADEDIF
 70
    70
  9
$TILEMODE
 70
     1
  9
$MAXACTVP
 70
    64
  9
$PINSBASE
 10
0.0
 20
0.0
 30
0.0
  9
$PLIMCHECK
 70
     0
  9
$PEXTMIN
 10
1.0000000000E+20
 20
1.0000000000E+20
 30
1.0000000000E+20
  9
$PEXTMAX
 10
-1.0000000000E+20
 20
-1.0000000000E+20
 30
-1.0000000000E+20
  9
$PLIMMIN
 10
0.0
 20
0.0
  9
$PLIMMAX
 10
420.0
 20
297.0
  9
$UNITMODE
 70
     0
  9
$VISRETAIN
 70
     1
  9
$PLINEGEN
 70
     0
  9
$PSLTSCALE
 70
     1
  9
$TREEDEPTH
 70
  3020
  9
$CMLSTYLE
  2
Standard
  9
$CMLJUST
 70
     0
  9
$CMLSCALE
 40
20.0
  9
$PROXYGRAPHICS
 70
     1
  9
$MEASUREMENT
 70
     1
  9
$CELWEIGHT
370
    -1
  9
$ENDCAPS
280
     0
  9
$JOINSTYLE
280
     0
  9
$LWDISPLAY
290
     1
  9
$INSUNITS
 70
     4
  9
$HYPERLINKBASE
  1

  9
$STYLESHEET
  1

  9
$XEDIT
290
     1
  9
$CEPSNTYPE
380
     0
  9
$PSTYLEMODE
290
     1
  9
$FINGERPRINTGUID
  2
{7d5d1012-137f-456b-ab36-cbdf1a9f2d27}
  9
$VERSIONGUID
  2
{FAEB1C32-E019-11D5-929B-00C0DF256EC4}
  9
$EXTNAMES
290
     1
  9
$PSVPSCALE
 40
0.0
  9
$OLESTARTUP
290
     0
  0
ENDSEC
  0
SECTION
  2
CLASSES
  0
CLASS
  1
ACDBDICTIONARYWDFLT
  2
AcDbDictionaryWithDefault
  3
ObjectDBX Classes
 90
        0
280
     0
281
     0
  0
CLASS
  1
VISUALSTYLE
  2
AcDbVisualStyle
  3
ObjectDBX Classes
 90
     4095
280
     0
281
     0
  0
CLASS
  1
MATERIAL
  2
AcDbMaterial
  3
ObjectDBX Classes
 90
     1153
280
     0
281
     0
  0
CLASS
  1
SCALE
  2
AcDbScale
  3
ObjectDBX Classes
 90
     1153
280
     0
281
     0
  0
CLASS
  1
TABLESTYLE
  2
AcDbTableStyle
  3
ObjectDBX Classes
 90
     4095
280
     0
281
     0
  0
CLASS
  1
MLEADERSTYLE
  2
AcDbMLeaderStyle
  3
ACDB_MLEADERSTYLE_CLASS
 90
     4095
280
     0
281
     0
  0
CLASS
  1
SUN
  2
AcDbSun
  3
SCENEOE
 90
     1153
280
     0
281
     0
  0
CLASS
  1
ACDBPLACEHOLDER
  2
AcDbPlaceHolder
  3
ObjectDBX Classes
 90
        0
280
     0
281
     0
  0
CLASS
  1
LAYOUT
  2
AcDbLayout
  3
ObjectDBX Classes
 90
        0
280
     0
281
     0
  0
ENDSEC
  0
SECTION
  2
TABLES
  0
TABLE
  2
VPORT
  5
8
330
0
100
AcDbSymbolTable
 70
     1
  0
VPORT
  5
29
330
8
100
AcDbSymbolTableRecord
100
AcDbViewportTableRecord
  2
*Active
 70
     0
 10
0.0
 20
0.0
 11
1.0
 21
1.0
 12
139.7
 22
107.95
 13
0.0
 23
0.0
 14
10.0
 24
10.0
 15
10.0
 25
10.0
 16
0.0
 26
0.0
 36
1.0
 17
0.0
 27
0.0
 37
0.0
 40
215.9
 41
1.2941176471
 42
50.0
 43
0.0
 44
0.0
 50
0.0
 51
0.0
 71
     0
 72
  2000
 73
     1
 74
     3
 75
     0
 76
     0
 77
     0
 78
     0
281
     0
 65
     1
110
0.0
120
0.0
130
0.0
111
1.0
121
0.0
131
0.0
112
0.0
122
1.0
132
0.0
 79
     0
146
0.0
  0
ENDTAB
  0
TABLE
  2
LTYPE
  5
5
330
0
100
AcDbSymbolTable
 70
     6
  0
LTYPE
  5
14
330
5
100
AcDbSymbolTableRecord
100
AcDbLinetypeTableRecord
  2
ByBlock
 70
     0
  3

 72
    65
 73
     0
 40
0.0
  0
LTYPE
  5
15
330
5
100
AcDbSymbolTableRecord
100
AcDbLinetypeTableRecord
  2
ByLayer
 70
     0
  3

 72
    65
 73
     0
 40
0.0
  0
LTYPE
  5
16
330
5
100
AcDbSymbolTableRecord
100
AcDbLinetypeTableRecord
  2
Continuous
 70
     0
  3
Solid line
 72
    65
 73
     0
 40
0.0
  0
LTYPE
  5
6E
330
5
100
AcDbSymbolTableRecord
100
AcDbLinetypeTableRecord
  2
HIDDEN
 70
     0
  3
Hidden __ __ __ __ __ __ __ __ __ __ __ __ __ __
 72
    65
 73
     2
 40
1.905
 49
1.27
 74
     0
 49
-0.635
 74
     0
  0
LTYPE
  5
6F
330
5
100
AcDbSymbolTableRecord
100
AcDbLinetypeTableRecord
  2
PHANTOM
 70
     0
  3
Phantom ______  __  __  ______  __  __  ______
 72
    65
 73
     6
 40
12.7
 49
6.35
 74
     0
 49
-1.27
 74
     0
 49
1.27
 74
     0
 49
-1.27
 74
     0
 49
1.27
 74
     0
 49
-1.27
 74
     0
  0
LTYPE
  5
70
330
5
100
AcDbSymbolTableRecord
100
AcDbLinetypeTableRecord
  2
CENTER
 70
     0
  3
Center ____ _ ____ _ ____ _ ____ _ ____ _ ____
 72
    65
 73
     4
 40
10.16
 49
6.35
 74
     0
 49
-1.27
 74
     0
 49
1.27
 74
     0
 49
-1.27
 74
     0
  0
LTYPE
  5
71
330
5
100
AcDbSymbolTableRecord
100
AcDbLinetypeTableRecord
  2
CENTERX2
 70
     0
  3
Center (2x) ________  __  ________  __  _____
 72
    65
 73
     4
 40
20.32
 49
12.7
 74
     0
 49
-2.54
 74
     0
 49
2.54
 74
     0
 49
-2.54
 74
     0
  0
LTYPE
  5
72
330
5
100
AcDbSymbolTableRecord
100
AcDbLinetypeTableRecord
  2
DOT2
 70
     0
  3
Dot (.5x) ........................................
 72
    65
 73
     2
 40
0.635
 49
0.0
 74
     0
 49
-0.635
 74
     0
  0
ENDTAB
  0
TABLE
  2
LAYER
  5
2
330
0
100
AcDbSymbolTable
 70
    17
  0
LAYER
  5
10
330
2
100
AcDbSymbolTableRecord
100
AcDbLayerTableRecord
  2
0
 70
     0
 62
     7
  6
Continuous
370
    -3
390
F
  0
LAYER
  5
73
330
2
100
AcDbSymbolTableRecord
100
AcDbLayerTableRecord
  2
FORMAT
 70
     0
 62
     7
  6
Continuous
370
    -3
390
F
  0
LAYER
  5
74
330
2
100
AcDbSymbolTableRecord
100
AcDbLayerTableRecord
  2
YARDIMCI_GEOMETRI
 70
     0
 62
    -6
  6
Continuous
290
     0
370
    -3
390
F
  0
LAYER
  5
75
330
2
100
AcDbSymbolTableRecord
100
AcDbLayerTableRecord
  2
SAYFA_CERCEVESI
 70
     0
 62
     7
  6
Continuous
370
    25
390
F
  0
LAYER
  5
76
330
2
100
AcDbSymbolTableRecord
100
AcDbLayerTableRecord
  2
ANTET
 70
     0
 62
     7
  6
Continuous
370
    -3
390
F
  0
LAYER
  5
77
330
2
100
AcDbSymbolTableRecord
100
AcDbLayerTableRecord
  2
OLCU
 70
     0
 62
   150
  6
Continuous
370
    -3
390
F
  0
LAYER
  5
78
330
2
100
AcDbSymbolTableRecord
100
AcDbLayerTableRecord
  2
METIN
 70
     0
 62
    96
  6
Continuous
370
    -3
390
F
  0
LAYER
  5
79
330
2
100
AcDbSymbolTableRecord
100
AcDbLayerTableRecord
  2
BALON
 70
     0
 62
     5
  6
Continuous
370
    -3
390
F
  0
LAYER
  5
7A
330
2
100
AcDbSymbolTableRecord
100
AcDbLayerTableRecord
  2
VURGU
 70
     0
 62
     7
  6
Continuous
370
    -3
390
F
  0
LAYER
  5
7B
330
2
100
AcDbSymbolTableRecord
100
AcDbLayerTableRecord
  2
SILIK
 70
     0
 62
     7
  6
Continuous
370
    -3
390
F
  0
LAYER
  5
7C
330
2
100
AcDbSymbolTableRecord
100
AcDbLayerTableRecord
  2
MODEL
 70
     0
 62
     7
  6
Continuous
370
    -3
390
F
  0
LAYER
  5
7D
330
2
100
AcDbSymbolTableRecord
100
AcDbLayerTableRecord
  2
DETAYLANDıRMA
 70
     0
 62
   190
  6
Continuous
370
    -3
390
F
  0
LAYER
  5
7E
330
2
100
AcDbSymbolTableRecord
100
AcDbLayerTableRecord
  2
TOLERANS
 70
     0
 62
   230
  6
Continuous
370
    -3
390
F
  0
LAYER
  5
7F
330
2
100
AcDbSymbolTableRecord
100
AcDbLayerTableRecord
  2
MERKEZ_CIZGILERI
 70
     0
 62
    30
  6
Continuous
370
    -3
390
F
  0
LAYER
  5
80
330
2
100
AcDbSymbolTableRecord
100
AcDbLayerTableRecord
  2
KESIT-DETAY_CIZGILERI
 70
     0
 62
     7
  6
Continuous
370
    -3
390
F
  0
LAYER
  5
81
330
2
100
AcDbSymbolTableRecord
100
AcDbLayerTableRecord
  2
\U+041E\U+0421\U+0415\U+0412\U+042B\U+0415
 70
     0
 62
     7
  6
Continuous
370
    -3
390
F
  0
LAYER
  5
82
330
2
100
AcDbSymbolTableRecord
100
AcDbLayerTableRecord
  2
\U+0412\U+041E\U+0414\U+042F\U+041D\U+042B\U+0415_\U+0417\U+041D\U+0410\U+041A\U+0418
 70
     0
 62
    11
  6
Continuous
370
    -3
390
F
  0
ENDTAB
  0
TABLE
  2
STYLE
  5
3
330
0
100
AcDbSymbolTable
 70
     1
  0
STYLE
  5
11
330
3
100
AcDbSymbolTableRecord
100
AcDbTextStyleTableRecord
  2
Standard
 70
     0
 40
0.0
 41
1.0
 50
0.0
 71
     0
 42
3.5
  3
txt
  4

  0
ENDTAB
  0
TABLE
  2
VIEW
  5
6
330
0
100
AcDbSymbolTable
 70
     0
  0
ENDTAB
  0
TABLE
  2
UCS
  5
7
330
0
100
AcDbSymbolTable
 70
     0
  0
ENDTAB
  0
TABLE
  2
APPID
  5
9
330
0
100
AcDbSymbolTable
 70
     1
  0
APPID
  5
12
330
9
100
AcDbSymbolTableRecord
100
AcDbRegAppTableRecord
  2
ACAD
 70
     0
  0
ENDTAB
  0
TABLE
  2
DIMSTYLE
  5
A
330
0
100
AcDbSymbolTable
 70
     1
100
AcDbDimStyleTable
  0
DIMSTYLE
105
27
330
A
100
AcDbSymbolTableRecord
100
AcDbDimStyleTableRecord
  2
ISO-25
 70
     0
 41
2.5
 42
0.625
 43
3.75
 44
1.25
 73
     0
 74
     0
 77
     1
 78
     8
140
2.5
141
2.5
143
0.0393700787
147
0.625
171
     3
172
     1
178
     0
271
     2
272
     2
274
     3
278
    44
283
     0
284
     8
340
11
  0
ENDTAB
  0
TABLE
  2
BLOCK_RECORD
  5
1
330
0
100
AcDbSymbolTable
 70
     6
  0
BLOCK_RECORD
  5
1F
330
1
100
AcDbSymbolTableRecord
100
AcDbBlockTableRecord
  2
*Model_Space
340
22
  0
BLOCK_RECORD
  5
1B
330
1
100
AcDbSymbolTableRecord
100
AcDbBlockTableRecord
  2
*Paper_Space
340
1E
  0
BLOCK_RECORD
  5
23
330
1
100
AcDbSymbolTableRecord
100
AcDbBlockTableRecord
  2
*Paper_Space0
340
26
  0
BLOCK_RECORD
  5
8F
330
1
100
AcDbSymbolTableRecord
100
AcDbBlockTableRecord
  2
SW_CENTERMARKSYMBOL_0
340
0
102
{BLKREFS
331
9A
102
}
  0
BLOCK_RECORD
  5
9B
330
1
100
AcDbSymbolTableRecord
100
AcDbBlockTableRecord
  2
SW_CENTERMARKSYMBOL_1
340
0
102
{BLKREFS
331
A6
102
}
  0
BLOCK_RECORD
  5
A7
330
1
100
AcDbSymbolTableRecord
100
AcDbBlockTableRecord
  2
SW_CENTERMARKSYMBOL_2
340
0
102
{BLKREFS
331
B2
102
}
  0
BLOCK_RECORD
  5
B3
330
1
100
AcDbSymbolTableRecord
100
AcDbBlockTableRecord
  2
SW_CENTERMARKSYMBOL_3
340
0
102
{BLKREFS
331
BE
102
}
  0
BLOCK_RECORD
  5
BF
330
1
100
AcDbSymbolTableRecord
100
AcDbBlockTableRecord
  2
SW_CENTERMARKSYMBOL_4
340
0
102
{BLKREFS
331
CA
102
}
  0
ENDTAB
  0
ENDSEC
  0
SECTION
  2
BLOCKS
  0
BLOCK
  5
20
330
1F
100
AcDbEntity
  8
0
100
AcDbBlockBegin
  2
*Model_Space
 70
     0
 10
0.0
 20
0.0
 30
0.0
  3
*Model_Space
  1

  0
ENDBLK
  5
21
330
1F
100
AcDbEntity
  8
0
100
AcDbBlockEnd
  0
BLOCK
  5
1C
330
1B
100
AcDbEntity
 67
     1
  8
0
100
AcDbBlockBegin
  2
*Paper_Space
 70
     0
 10
0.0
 20
0.0
 30
0.0
  3
*Paper_Space
  1

  0
ENDBLK
  5
1D
330
1B
100
AcDbEntity
 67
     1
  8
0
100
AcDbBlockEnd
  0
BLOCK
  5
24
330
23
100
AcDbEntity
  8
0
100
AcDbBlockBegin
  2
*Paper_Space0
 70
     0
 10
0.0
 20
0.0
 30
0.0
  3
*Paper_Space0
  1

  0
ENDBLK
  5
25
330
23
100
AcDbEntity
  8
0
100
AcDbBlockEnd
  0
BLOCK
  5
90
330
8F
100
AcDbEntity
  8
0
100
AcDbBlockBegin
  2
SW_CENTERMARKSYMBOL_0
 70
     0
 10
0.0
 20
0.0
 30
0.0
  3
SW_CENTERMARKSYMBOL_0
  1

  0
LINE
  5
92
330
8F
100
AcDbEntity
  8
FORMAT
 62
     0
100
AcDbLine
 10
0.0
 20
0.0
 30
0.0
 11
0.0
 21
2.5
 31
0.0
  0
LINE
  5
93
330
8F
100
AcDbEntity
  8
FORMAT
 62
     0
100
AcDbLine
 10
0.0
 20
0.0
 30
0.0
 11
-2.5
 21
0.0
 31
0.0
  0
LINE
  5
94
330
8F
100
AcDbEntity
  8
FORMAT
 62
     0
100
AcDbLine
 10
0.0
 20
0.0
 30
0.0
 11
0.0
 21
-2.5
 31
0.0
  0
LINE
  5
95
330
8F
100
AcDbEntity
  8
FORMAT
 62
     0
100
AcDbLine
 10
0.0
 20
0.0
 30
0.0
 11
2.5
 21
0.0
 31
0.0
  0
LINE
  5
96
330
8F
100
AcDbEntity
  8
FORMAT
 62
     0
100
AcDbLine
 10
0.0
 20
5.0
 30
0.0
 11
0.0
 21
53.5
 31
0.0
  0
LINE
  5
97
330
8F
100
AcDbEntity
  8
FORMAT
 62
     0
100
AcDbLine
 10
-5.0
 20
0.0
 30
0.0
 11
-53.5
 21
0.0
 31
0.0
  0
LINE
  5
98
330
8F
100
AcDbEntity
  8
FORMAT
 62
     0
100
AcDbLine
 10
0.0
 20
-5.0
 30
0.0
 11
0.0
 21
-53.5
 31
0.0
  0
LINE
  5
99
330
8F
100
AcDbEntity
  8
FORMAT
 62
     0
100
AcDbLine
 10
5.0
 20
0.0
 30
0.0
 11
53.5
 21
0.0
 31
0.0
  0
ENDBLK
  5
91
330
8F
100
AcDbEntity
  8
0
100
AcDbBlockEnd
  0
BLOCK
  5
9C
330
9B
100
AcDbEntity
  8
0
100
AcDbBlockBegin
  2
SW_CENTERMARKSYMBOL_1
 70
     0
 10
0.0
 20
0.0
 30
0.0
  3
SW_CENTERMARKSYMBOL_1
  1

  0
LINE
  5
9E
330
9B
100
AcDbEntity
  8
FORMAT
 62
     0
100
AcDbLine
 10
0.0
 20
0.0
 30
0.0
 11
0.0
 21
2.5
 31
0.0
  0
LINE
  5
9F
330
9B
100
AcDbEntity
  8
FORMAT
 62
     0
100
AcDbLine
 10
0.0
 20
0.0
 30
0.0
 11
-2.5
 21
0.0
 31
0.0
  0
LINE
  5
A0
330
9B
100
AcDbEntity
  8
FORMAT
 62
     0
100
AcDbLine
 10
0.0
 20
0.0
 30
0.0
 11
0.0
 21
-2.5
 31
0.0
  0
LINE
  5
A1
330
9B
100
AcDbEntity
  8
FORMAT
 62
     0
100
AcDbLine
 10
0.0
 20
0.0
 30
0.0
 11
2.5
 21
0.0
 31
0.0
  0
LINE
  5
A2
330
9B
100
AcDbEntity
  8
FORMAT
 62
     0
100
AcDbLine
 10
0.0
 20
5.0
 30
0.0
 11
0.0
 21
10.5
 31
0.0
  0
LINE
  5
A3
330
9B
100
AcDbEntity
  8
FORMAT
 62
     0
100
AcDbLine
 10
-5.0
 20
0.0
 30
0.0
 11
-10.5
 21
0.0
 31
0.0
  0
LINE
  5
A4
330
9B
100
AcDbEntity
  8
FORMAT
 62
     0
100
AcDbLine
 10
0.0
 20
-5.0
 30
0.0
 11
0.0
 21
-10.5
 31
0.0
  0
LINE
  5
A5
330
9B
100
AcDbEntity
  8
FORMAT
 62
     0
100
AcDbLine
 10
5.0
 20
0.0
 30
0.0
 11
10.5
 21
0.0
 31
0.0
  0
ENDBLK
  5
9D
330
9B
100
AcDbEntity
  8
0
100
AcDbBlockEnd
  0
BLOCK
  5
A8
330
A7
100
AcDbEntity
  8
0
100
AcDbBlockBegin
  2
SW_CENTERMARKSYMBOL_2
 70
     0
 10
0.0
 20
0.0
 30
0.0
  3
SW_CENTERMARKSYMBOL_2
  1

  0
LINE
  5
AA
330
A7
100
AcDbEntity
  8
FORMAT
 62
     0
100
AcDbLine
 10
0.0
 20
0.0
 30
0.0
 11
0.0
 21
2.5
 31
0.0
  0
LINE
  5
AB
330
A7
100
AcDbEntity
  8
FORMAT
 62
     0
100
AcDbLine
 10
0.0
 20
0.0
 30
0.0
 11
-2.5
 21
0.0
 31
0.0
  0
LINE
  5
AC
330
A7
100
AcDbEntity
  8
FORMAT
 62
     0
100
AcDbLine
 10
0.0
 20
0.0
 30
0.0
 11
0.0
 21
-2.5
 31
0.0
  0
LINE
  5
AD
330
A7
100
AcDbEntity
  8
FORMAT
 62
     0
100
AcDbLine
 10
0.0
 20
0.0
 30
0.0
 11
2.5
 21
0.0
 31
0.0
  0
LINE
  5
AE
330
A7
100
AcDbEntity
  8
FORMAT
 62
     0
100
AcDbLine
 10
0.0
 20
5.0
 30
0.0
 11
0.0
 21
10.5
 31
0.0
  0
LINE
  5
AF
330
A7
100
AcDbEntity
  8
FORMAT
 62
     0
100
AcDbLine
 10
-5.0
 20
0.0
 30
0.0
 11
-10.5
 21
0.0
 31
0.0
  0
LINE
  5
B0
330
A7
100
AcDbEntity
  8
FORMAT
 62
     0
100
AcDbLine
 10
0.0
 20
-5.0
 30
0.0
 11
0.0
 21
-10.5
 31
0.0
  0
LINE
  5
B1
330
A7
100
AcDbEntity
  8
FORMAT
 62
     0
100
AcDbLine
 10
5.0
 20
0.0
 30
0.0
 11
10.5
 21
0.0
 31
0.0
  0
ENDBLK
  5
A9
330
A7
100
AcDbEntity
  8
0
100
AcDbBlockEnd
  0
BLOCK
  5
B4
330
B3
100
AcDbEntity
  8
0
100
AcDbBlockBegin
  2
SW_CENTERMARKSYMBOL_3
 70
     0
 10
0.0
 20
0.0
 30
0.0
  3
SW_CENTERMARKSYMBOL_3
  1

  0
LINE
  5
B6
330
B3
100
AcDbEntity
  8
FORMAT
 62
     0
100
AcDbLine
 10
0.0
 20
0.0
 30
0.0
 11
0.0
 21
2.5
 31
0.0
  0
LINE
  5
B7
330
B3
100
AcDbEntity
  8
FORMAT
 62
     0
100
AcDbLine
 10
0.0
 20
0.0
 30
0.0
 11
-2.5
 21
0.0
 31
0.0
  0
LINE
  5
B8
330
B3
100
AcDbEntity
  8
FORMAT
 62
     0
100
AcDbLine
 10
0.0
 20
0.0
 30
0.0
 11
0.0
 21
-2.5
 31
0.0
  0
LINE
  5
B9
330
B3
100
AcDbEntity
  8
FORMAT
 62
     0
100
AcDbLine
 10
0.0
 20
0.0
 30
0.0
 11
2.5
 21
0.0
 31
0.0
  0
LINE
  5
BA
330
B3
100
AcDbEntity
  8
FORMAT
 62
     0
100
AcDbLine
 10
0.0
 20
5.0
 30
0.0
 11
0.0
 21
10.5
 31
0.0
  0
LINE
  5
BB
330
B3
100
AcDbEntity
  8
FORMAT
 62
     0
100
AcDbLine
 10
-5.0
 20
0.0
 30
0.0
 11
-10.5
 21
0.0
 31
0.0
  0
LINE
  5
BC
330
B3
100
AcDbEntity
  8
FORMAT
 62
     0
100
AcDbLine
 10
0.0
 20
-5.0
 30
0.0
 11
0.0
 21
-10.5
 31
0.0
  0
LINE
  5
BD
330
B3
100
AcDbEntity
  8
FORMAT
 62
     0
100
AcDbLine
 10
5.0
 20
0.0
 30
0.0
 11
10.5
 21
0.0
 31
0.0
  0
ENDBLK
  5
B5
330
B3
100
AcDbEntity
  8
0
100
AcDbBlockEnd
  0
BLOCK
  5
C0
330
BF
100
AcDbEntity
  8
0
100
AcDbBlockBegin
  2
SW_CENTERMARKSYMBOL_4
 70
     0
 10
0.0
 20
0.0
 30
0.0
  3
SW_CENTERMARKSYMBOL_4
  1

  0
LINE
  5
C2
330
BF
100
AcDbEntity
  8
FORMAT
 62
     0
100
AcDbLine
 10
0.0
 20
0.0
 30
0.0
 11
0.0
 21
2.5
 31
0.0
  0
LINE
  5
C3
330
BF
100
AcDbEntity
  8
FORMAT
 62
     0
100
AcDbLine
 10
0.0
 20
0.0
 30
0.0
 11
-2.5
 21
0.0
 31
0.0
  0
LINE
  5
C4
330
BF
100
AcDbEntity
  8
FORMAT
 62
     0
100
AcDbLine
 10
0.0
 20
0.0
 30
0.0
 11
0.0
 21
-2.5
 31
0.0
  0
LINE
  5
C5
330
BF
100
AcDbEntity
  8
FORMAT
 62
     0
100
AcDbLine
 10
0.0
 20
0.0
 30
0.0
 11
2.5
 21
0.0
 31
0.0
  0
LINE
  5
C6
330
BF
100
AcDbEntity
  8
FORMAT
 62
     0
100
AcDbLine
 10
0.0
 20
5.0
 30
0.0
 11
0.0
 21
10.5
 31
0.0
  0
LINE
  5
C7
330
BF
100
AcDbEntity
  8
FORMAT
 62
     0
100
AcDbLine
 10
-5.0
 20
0.0
 30
0.0
 11
-10.5
 21
0.0
 31
0.0
  0
LINE
  5
C8
330
BF
100
AcDbEntity
  8
FORMAT
 62
     0
100
AcDbLine
 10
0.0
 20
-5.0
 30
0.0
 11
0.0
 21
-10.5
 31
0.0
  0
LINE
  5
C9
330
BF
100
AcDbEntity
  8
FORMAT
 62
     0
100
AcDbLine
 10
5.0
 20
0.0
 30
0.0
 11
10.5
 21
0.0
 31
0.0
  0
ENDBLK
  5
C1
330
BF
100
AcDbEntity
  8
0
100
AcDbBlockEnd
  0
ENDSEC
  0
SECTION
  2
ENTITIES
  0
CIRCLE
  5
83
330
1F
100
AcDbEntity
  8
0
  6
Continuous
 62
     7
370
    25
100
AcDbCircle
 10
139.4278266097
 20
89.80864408
 30
0.0
 40
9.0
  0
CIRCLE
  5
84
330
1F
100
AcDbEntity
  8
0
  6
Continuous
 62
     7
370
    25
100
AcDbCircle
 10
139.4278266097
 20
159.70864408
 30
0.0
 40
9.0
  0
CIRCLE
  5
85
330
1F
100
AcDbEntity
  8
0
  6
Continuous
 62
     7
370
    25
100
AcDbCircle
 10
139.4278266097
 20
124.75864408
 30
0.0
 40
49.99999999999997
  0
CIRCLE
  5
86
330
1F
100
AcDbEntity
  8
0
  6
Continuous
 62
     7
370
    25
100
AcDbCircle
 10
139.4278266097
 20
124.75864408
 30
0.0
 40
17.99999999999997
  0
CIRCLE
  5
87
330
1F
100
AcDbEntity
  8
0
  6
Continuous
 62
     7
370
    25
100
AcDbCircle
 10
174.3778266097
 20
124.75864408
 30
0.0
 40
9.0
  0
CIRCLE
  5
88
330
1F
100
AcDbEntity
  8
0
  6
Continuous
 62
     7
370
    25
100
AcDbCircle
 10
104.4778266097
 20
124.75864408
 30
0.0
 40
9.000000000000014
  0
CIRCLE
  5
89
330
1F
100
AcDbEntity
  8
0
  6
Continuous
 62
     7
370
    25
100
AcDbCircle
 10
139.4278266097
 20
124.75864408
 30
0.0
 40
16.99999999999997
  0
CIRCLE
  5
8A
330
1F
100
AcDbEntity
  8
0
  6
Continuous
 62
     7
370
    25
100
AcDbCircle
 10
139.4278266097
 20
124.75864408
 30
0.0
 40
50.99999999999997
  0
CIRCLE
  5
8B
330
1F
100
AcDbEntity
  8
0
  6
Continuous
 62
     7
370
    25
100
AcDbCircle
 10
139.4278266097
 20
159.70864408
 30
0.0
 40
8.0
  0
CIRCLE
  5
8C
330
1F
100
AcDbEntity
  8
0
  6
Continuous
 62
     7
370
    25
100
AcDbCircle
 10
104.4778266097
 20
124.75864408
 30
0.0
 40
8.000000000000014
  0
CIRCLE
  5
8D
330
1F
100
AcDbEntity
  8
0
  6
Continuous
 62
     7
370
    25
100
AcDbCircle
 10
174.3778266097
 20
124.75864408
 30
0.0
 40
8.0
  0
CIRCLE
  5
8E
330
1F
100
AcDbEntity
  8
0
  6
Continuous
 62
     7
370
    25
100
AcDbCircle
 10
139.4278266097
 20
89.80864408
 30
0.0
 40
8.0
  0
INSERT
  5
9A
330
1F
100
AcDbEntity
  8
FORMAT
 62
     7
100
AcDbBlockReference
  2
SW_CENTERMARKSYMBOL_0
 10
139.4278266097
 20
124.75864408
 30
0.0
  0
INSERT
  5
A6
330
1F
100
AcDbEntity
  8
FORMAT
 62
     7
100
AcDbBlockReference
  2
SW_CENTERMARKSYMBOL_1
 10
139.4278266097
 20
159.70864408
 30
0.0
  0
INSERT
  5
B2
330
1F
100
AcDbEntity
  8
FORMAT
 62
     7
100
AcDbBlockReference
  2
SW_CENTERMARKSYMBOL_2
 10
174.3778266097
 20
124.75864408
 30
0.0
  0
INSERT
  5
BE
330
1F
100
AcDbEntity
  8
FORMAT
 62
     7
100
AcDbBlockReference
  2
SW_CENTERMARKSYMBOL_3
 10
139.4278266097
 20
89.80864408
 30
0.0
  0
INSERT
  5
CA
330
1F
100
AcDbEntity
  8
FORMAT
 62
     7
100
AcDbBlockReference
  2
SW_CENTERMARKSYMBOL_4
 10
104.4778266097
 20
124.75864408
 30
0.0
  0
ARC
  5
CB
330
1F
100
AcDbEntity
  8
0
  6
Continuous
 62
     7
370
    25
100
AcDbCircle
 10
36.8274803444
 20
74.75864408
 30
0.0
 40
1.0
100
AcDbArc
 50
270.0
 51
0.0
  0
ARC
  5
CC
330
1F
100
AcDbEntity
  8
0
  6
Continuous
 62
     7
370
    25
100
AcDbCircle
 10
36.8274803444
 20
174.75864408
 30
0.0
 40
1.0
100
AcDbArc
 50
0.0
 51
90.0
  0
LINE
  5
CD
330
1F
100
AcDbEntity
  8
0
  6
Continuous
 62
     7
370
    25
100
AcDbLine
 10
36.8274803444
 20
175.75864408
 30
0.0
 11
26.8274803444
 21
175.75864408
 31
0.0
  0
LINE
  5
CE
330
1F
100
AcDbEntity
  8
0
  6
Continuous
 62
     7
370
    25
100
AcDbLine
 10
26.8274803444
 20
73.75864408
 30
0.0
 11
36.8274803444
 21
73.75864408
 31
0.0
  0
ARC
  5
CF
330
1F
100
AcDbEntity
  8
0
  6
Continuous
 62
     7
370
    25
100
AcDbCircle
 10
26.8274803444
 20
74.75864408
 30
0.0
 40
1.0
100
AcDbArc
 50
180.0
 51
270.0
  0
ARC
  5
D0
330
1F
100
AcDbEntity
  8
0
  6
Continuous
 62
     7
370
    25
100
AcDbCircle
 10
26.8274803444
 20
174.75864408
 30
0.0
 40
1.0
100
AcDbArc
 50
90.0
 51
180.0
  0
LINE
  5
D1
330
1F
100
AcDbEntity
  8
0
  6
Continuous
 62
     7
370
    25
100
AcDbLine
 10
37.8274803444
 20
124.75864408
 30
0.0
 11
37.8274803444
 21
74.75864408
 31
0.0
  0
LINE
  5
D2
330
1F
100
AcDbEntity
  8
0
  6
Continuous
 62
     7
370
    25
100
AcDbLine
 10
37.8274803444
 20
174.75864408
 30
0.0
 11
37.8274803444
 21
124.75864408
 31
0.0
  0
LINE
  5
D3
330
1F
100
AcDbEntity
  8
0
  6
Continuous
 62
     7
370
    25
100
AcDbLine
 10
25.8274803444
 20
124.75864408
 30
0.0
 11
25.8274803444
 21
174.75864408
 31
0.0
  0
LINE
  5
D4
330
1F
100
AcDbEntity
  8
0
  6
Continuous
 62
     7
370
    25
100
AcDbLine
 10
25.8274803444
 20
74.75864408
 30
0.0
 11
25.8274803444
 21
124.75864408
 31
0.0
  0
LINE
  5
D5
330
1F
100
AcDbEntity
  8
0
  6
Continuous
 62
     1
370
    25
100
AcDbLine
 10
36.8274803444
 20
124.75864408
 30
0.0
 11
36.8274803444
 21
175.75864408
 31
0.0
  0
LINE
  5
D6
330
1F
100
AcDbEntity
  8
0
  6
Continuous
 62
     1
370
    25
100
AcDbLine
 10
36.8274803444
 20
73.75864408
 30
0.0
 11
36.8274803444
 21
124.75864408
 31
0.0
  0
LINE
  5
D7
330
1F
100
AcDbEntity
  8
0
  6
Continuous
 62
     1
370
    25
100
AcDbLine
 10
26.8274803444
 20
124.75864408
 30
0.0
 11
26.8274803444
 21
73.75864408
 31
0.0
  0
LINE
  5
D8
330
1F
100
AcDbEntity
  8
0
  6
Continuous
 62
     1
370
    25
100
AcDbLine
 10
26.8274803444
 20
175.75864408
 30
0.0
 11
26.8274803444
 21
124.75864408
 31
0.0
  0
ARC
  5
D9
330
1F
100
AcDbEntity
  8
0
  6
Continuous
 62
     7
370
    25
100
AcDbCircle
 10
244.898450337
 20
174.75864408
 30
0.0
 40
1.0
100
AcDbArc
 50
90.0
 51
180.0
  0
ARC
  5
DA
330
1F
100
AcDbEntity
  8
0
  6
Continuous
 62
     7
370
    25
100
AcDbCircle
 10
244.898450337
 20
74.75864408
 30
0.0
 40
1.0
100
AcDbArc
 50
180.0
 51
270.0
  0
LINE
  5
DB
330
1F
100
AcDbEntity
  8
0
  6
Continuous
 62
     7
370
    25
100
AcDbLine
 10
244.898450337
 20
73.75864408
 30
0.0
 11
254.898450337
 21
73.75864408
 31
0.0
  0
LINE
  5
DC
330
1F
100
AcDbEntity
  8
0
  6
Continuous
 62
     7
370
    25
100
AcDbLine
 10
254.898450337
 20
175.75864408
 30
0.0
 11
244.898450337
 21
175.75864408
 31
0.0
  0
ARC
  5
DD
330
1F
100
AcDbEntity
  8
0
  6
Continuous
 62
     7
370
    25
100
AcDbCircle
 10
254.898450337
 20
174.75864408
 30
0.0
 40
1.0
100
AcDbArc
 50
0.0
 51
90.0
  0
ARC
  5
DE
330
1F
100
AcDbEntity
  8
0
  6
Continuous
 62
     7
370
    25
100
AcDbCircle
 10
254.898450337
 20
74.75864408
 30
0.0
 40
1.0
100
AcDbArc
 50
270.0
 51
0.0
  0
LINE
  5
DF
330
1F
100
AcDbEntity
  8
0
  6
Continuous
 62
     7
370
    25
100
AcDbLine
 10
243.898450337
 20
74.75864408
 30
0.0
 11
243.898450337
 21
174.75864408
 31
0.0
  0
LINE
  5
E0
330
1F
100
AcDbEntity
  8
0
  6
Continuous
 62
     7
370
    25
100
AcDbLine
 10
255.898450337
 20
174.75864408
 30
0.0
 11
255.898450337
 21
74.75864408
 31
0.0
  0
LINE
  5
E1
330
1F
100
AcDbEntity
  8
0
  6
Continuous
 62
     1
370
    25
100
AcDbLine
 10
244.898450337
 20
175.75864408
 30
0.0
 11
244.898450337
 21
73.75864408
 31
0.0
  0
LINE
  5
E2
330
1F
100
AcDbEntity
  8
0
  6
Continuous
 62
     1
370
    25
100
AcDbLine
 10
254.898450337
 20
73.75864408
 30
0.0
 11
254.898450337
 21
175.75864408
 31
0.0
  0
ARC
  5
E3
330
1F
100
AcDbEntity
  8
0
  6
Continuous
 62
     7
370
    25
100
AcDbCircle
 10
89.4278266097
 20
240.7988538288
 30
0.0
 40
1.0
100
AcDbArc
 50
180.0
 51
270.0
  0
ARC
  5
E4
330
1F
100
AcDbEntity
  8
0
  6
Continuous
 62
     7
370
    25
100
AcDbCircle
 10
189.4278266097
 20
240.7988538288
 30
0.0
 40
1.0
100
AcDbArc
 50
270.0
 51
0.0
  0
LINE
  5
E5
330
1F
100
AcDbEntity
  8
0
  6
Continuous
 62
     7
370
    25
100
AcDbLine
 10
190.4278266097
 20
240.7988538288
 30
0.0
 11
190.4278266097
 21
250.7988538288
 31
0.0
  0
LINE
  5
E6
330
1F
100
AcDbEntity
  8
0
  6
Continuous
 62
     7
370
    25
100
AcDbLine
 10
88.4278266097
 20
250.7988538288
 30
0.0
 11
88.4278266097
 21
240.7988538288
 31
0.0
  0
ARC
  5
E7
330
1F
100
AcDbEntity
  8
0
  6
Continuous
 62
     7
370
    25
100
AcDbCircle
 10
89.4278266097
 20
250.7988538288
 30
0.0
 40
1.0
100
AcDbArc
 50
90.0
 51
180.0
  0
ARC
  5
E8
330
1F
100
AcDbEntity
  8
0
  6
Continuous
 62
     7
370
    25
100
AcDbCircle
 10
189.4278266097
 20
250.7988538288
 30
0.0
 40
1.0
100
AcDbArc
 50
0.0
 51
90.0
  0
LINE
  5
E9
330
1F
100
AcDbEntity
  8
0
  6
Continuous
 62
     7
370
    25
100
AcDbLine
 10
189.4278266097
 20
239.7988538288
 30
0.0
 11
89.4278266102
 21
239.7988538288
 31
0.0
  0
LINE
  5
EA
330
1F
100
AcDbEntity
  8
0
  6
Continuous
 62
     7
370
    25
100
AcDbLine
 10
89.4278266102
 20
251.7988538288
 30
0.0
 11
189.4278266097
 21
251.7988538288
 31
0.0
  0
LINE
  5
EB
330
1F
100
AcDbEntity
  8
0
  6
Continuous
 62
     1
370
    25
100
AcDbLine
 10
88.4278266097
 20
240.7988538288
 30
0.0
 11
190.4278266097
 21
240.7988538288
 31
0.0
  0
LINE
  5
EC
330
1F
100
AcDbEntity
  8
0
  6
Continuous
 62
     1
370
    25
100
AcDbLine
 10
190.4278266097
 20
250.7988538288
 30
0.0
 11
88.4278266097
 21
250.7988538288
 31
0.0
  0
ARC
  5
ED
330
1F
100
AcDbEntity
  8
0
  6
Continuous
 62
     7
370
    25
100
AcDbCircle
 10
189.4278266097
 20
-3.9622621472
 30
0.0
 40
1.0
100
AcDbArc
 50
0.0
 51
90.0
  0
ARC
  5
EE
330
1F
100
AcDbEntity
  8
0
  6
Continuous
 62
     7
370
    25
100
AcDbCircle
 10
89.4278266097
 20
-3.9622621472
 30
0.0
 40
1.0
100
AcDbArc
 50
90.0
 51
180.0
  0
LINE
  5
EF
330
1F
100
AcDbEntity
  8
0
  6
Continuous
 62
     7
370
    25
100
AcDbLine
 10
88.4278266097
 20
-3.9622621472
 30
0.0
 11
88.4278266097
 21
-13.9622621472
 31
0.0
  0
LINE
  5
F0
330
1F
100
AcDbEntity
  8
0
  6
Continuous
 62
     7
370
    25
100
AcDbLine
 10
190.4278266097
 20
-13.9622621472
 30
0.0
 11
190.4278266097
 21
-3.9622621472
 31
0.0
  0
ARC
  5
F1
330
1F
100
AcDbEntity
  8
0
  6
Continuous
 62
     7
370
    25
100
AcDbCircle
 10
189.4278266097
 20
-13.9622621472
 30
0.0
 40
1.0
100
AcDbArc
 50
270.0
 51
0.0
  0
ARC
  5
F2
330
1F
100
AcDbEntity
  8
0
  6
Continuous
 62
     7
370
    25
100
AcDbCircle
 10
89.4278266097
 20
-13.9622621472
 30
0.0
 40
1.0
100
AcDbArc
 50
180.0
 51
270.0
  0
LINE
  5
F3
330
1F
100
AcDbEntity
  8
0
  6
Continuous
 62
     7
370
    25
100
AcDbLine
 10
89.4278266102
 20
-2.9622621472
 30
0.0
 11
189.4278266097
 21
-2.9622621472
 31
0.0
  0
LINE
  5
F4
330
1F
100
AcDbEntity
  8
0
  6
Continuous
 62
     7
370
    25
100
AcDbLine
 10
189.4278266097
 20
-14.9622621472
 30
0.0
 11
89.4278266102
 21
-14.9622621472
 31
0.0
  0
LINE
  5
F5
330
1F
100
AcDbEntity
  8
0
  6
Continuous
 62
     1
370
    25
100
AcDbLine
 10
190.4278266097
 20
-3.9622621472
 30
0.0
 11
88.4278266097
 21
-3.9622621472
 31
0.0
  0
LINE
  5
F6
330
1F
100
AcDbEntity
  8
0
  6
Continuous
 62
     1
370
    25
100
AcDbLine
 10
88.4278266097
 20
-13.9622621472
 30
0.0
 11
190.4278266097
 21
-13.9622621472
 31
0.0
  0
SPLINE
  5
F7
330
1F
100
AcDbEntity
  8
0
  6
Continuous
 62
     7
370
    25
100
AcDbSpline
210
0.0
220
0.0
230
1.0
 70
     8
 71
     3
 72
    80
 73
    76
 74
     0
 42
0.00000001
 43
0.00000001
 40
0.0
 40
0.0
 40
0.0
 40
0.0
 40
0.0012519881952025
 40
0.0149588907484566
 40
0.028677523391989
 40
0.0424150019211891
 40
0.0561769021599531
 40
0.0699669555058202
 40
0.0837869715844039
 40
0.097636969274364
 40
0.1115154663759011
 40
0.1254198613608607
 40
0.1393468397285849
 40
0.1532927496759915
 40
0.1672539112144365
 40
0.1812268431705916
 40
0.1952084089970895
 40
0.2091958928705415
 40
0.2231870223061276
 40
0.2371799539062602
 40
0.2511730004205762
 40
0.265164990843777
 40
0.2791551988853153
 40
0.2931431255095455
 40
0.3071284553930813
 40
0.3211110193212995
 40
0.3350907626080604
 40
0.3490677191456036
 40
0.363041990456993
 40
0.3770137290427076
 40
0.3909831253227375
 40
0.404950397533078
 40
0.4189157840138228
 40
0.4328795374090452
 40
0.4468419203771893
 40
0.4608032024804186
 40
0.4747636579805572
 40
0.4887235643175621
 40
0.5026832010845586
 40
0.5166428493420187
 40
0.530602725711012
 40
0.5445630843628565
 40
0.558524208280035
 40
0.5724863801746969
 40
0.586449881673368
 40
0.6004149921008691
 40
0.614381986688434
 40
0.6283511340015756
 40
0.6423226923396322
 40
0.6562969048042361
 40
0.6702739926678463
 40
0.6842541465964809
 40
0.6982375151951353
 40
0.7122241902559915
 40
0.7262141880091794
 40
0.740207425623373
 40
0.7542036922109971
 40
0.7682026137105137
 40
0.7822036113201868
 40
0.7962058537461819
 40
0.8102078427063634
 40
0.8242078618080887
 40
0.8382038590475708
 40
0.8521933220472634
 40
0.8661732712638822
 40
0.8801402970068652
 40
0.8940906583686065
 40
0.9080204607227886
 40
0.9219259215987086
 40
0.9358037211014891
 40
0.9496514130419548
 40
0.9634678499364981
 40
0.9772535554618841
 40
0.9910109696319416
 40
1.0
 40
1.0
 40
1.0
 40
1.0
 10
277.2432876063976
 20
35.74913873535859
 30
0.0
 10
277.208652449134
 20
35.76548153628575
 30
0.0
 10
276.7948278335761
 20
35.96074709432361
 30
0.0
 10
275.9630013448561
 20
36.2607781446242
 30
0.0
 10
274.7474285222862
 20
36.64237472940776
 30
0.0
 10
273.4904977384315
 20
36.93519802619681
 30
0.0
 10
272.1996983986184
 20
37.14925666295363
 30
0.0
 10
270.8756013195665
 20
37.28120511535511
 30
0.0
 10
269.5207965368446
 20
37.33140490058355
 30
0.0
 10
268.1375047675348
 20
37.29938106984611
 30
0.0
 10
266.728213496337
 20
37.18508018069564
 30
0.0
 10
265.295485372586
 20
36.98856120677013
 30
0.0
 10
263.8419794725017
 20
36.71009645267894
 30
0.0
 10
262.3704115607321
 20
36.35015058163202
 30
0.0
 10
260.8835320034768
 20
35.90938240057153
 30
0.0
 10
259.3841036381602
 20
35.38863339934522
 30
0.0
 10
257.8748860099137
 20
34.78891583919245
 30
0.0
 10
256.3586244015135
 20
34.11139965272393
 30
0.0
 10
254.8380432272967
 20
33.35740029463657
 30
0.0
 10
253.3158511338672
 20
32.5283727681002
 30
0.0
 10
251.7947333412572
 20
31.62590139445934
 30
0.0
 10
250.2773456179327
 20
30.65168968184102
 30
0.0
 10
248.7663063577072
 20
29.6075476821956
 30
0.0
 10
247.2642034767395
 20
28.49539003962697
 30
0.0
 10
245.7736000610194
 20
27.31723624164266
 30
0.0
 10
244.2970333233866
 20
26.07520764176023
 30
0.0
 10
242.8370129854039
 20
24.77152466034742
 30
0.0
 10
241.396019131456
 20
23.40850399740085
 30
0.0
 10
239.9764996079579
 20
21.98855573985445
 30
0.0
 10
238.5808670505927
 20
20.51418028582058
 30
0.0
 10
237.2114956224699
 20
18.98796503868944
 30
0.0
 10
235.8707175406115
 20
17.41258084658902
 30
0.0
 10
234.5608194600924
 20
15.79077817883533
 30
0.0
 10
233.2840387763152
 20
14.12538304217973
 30
0.0
 10
232.0425598973176
 20
12.41929264717642
 30
0.0
 10
230.8385105302408
 20
10.67547083989085
 30
0.0
 10
229.6739580193621
 20
8.896943317322954
 30
0.0
 10
228.5509057673606
 20
7.0867926467463
 30
0.0
 10
227.4712897670425
 20
5.248153110884106
 30
0.0
 10
226.4369768818209
 20
3.384208311809741
 30
0.0
 10
225.4497603897547
 20
1.498184262600323
 30
0.0
 10
224.5113561096156
 20
-0.4066574615032154
 30
0.0
 10
223.6233982666653
 20
-2.327028474577514
 30
0.0
 10
222.7874379614109
 20
-4.259617706123935
 30
0.0
 10
222.0049414353387
 20
-6.201095829518756
 30
0.0
 10
221.2772878860728
 20
-8.148120973425657
 30
0.0
 10
220.6057675123688
 20
-10.09734439791058
 30
0.0
 10
219.9915797941313
 20
-12.04541609709926
 30
0.0
 10
219.4358320083881
 20
-13.98899028575194
 30
0.0
 10
218.9395379765176
 20
-15.92473072159287
 30
0.0
 10
218.5036170302281
 20
-17.84931580908844
 30
0.0
 10
218.1288931731095
 20
-19.75944342390828
 30
0.0
 10
217.8160944001332
 20
-21.65183539116078
 30
0.0
 10
217.5658521182693
 20
-23.52324154575822
 30
0.0
 10
217.3787005864216
 20
-25.37044330167194
 30
0.0
 10
217.2550762613496
 20
-27.1902566611491
 30
0.0
 10
217.1953168978946
 20
-28.97953460885623
 30
0.0
 10
217.1996602077375
 20
-30.73516886579731
 30
0.0
 10
217.268241834003
 20
-32.45409102713539
 30
0.0
 10
217.401091212992
 20
-34.13325873444941
 30
0.0
 10
217.5981249230985
 20
-35.76966356298828
 30
0.0
 10
217.8591394785923
 20
-37.36033602596944
 30
0.0
 10
218.183806092953
 20
-38.90236044336008
 30
0.0
 10
218.5716613571889
 20
-40.39287202968363
 30
0.0
 10
219.0220961438932
 20
-41.82906004338663
 30
0.0
 10
219.5343440998325
 20
-43.20817926274989
 30
0.0
 10
220.1074732109044
 20
-44.52756341731871
 30
0.0
 10
220.7403735521186
 20
-45.78465474911683
 30
0.0
 10
221.4317771215632
 20
-46.9769974022761
 30
0.0
 10
222.1801877402136
 20
-48.10238487881567
 30
0.0
 10
222.9841856841196
 20
-49.15844287555248
 30
0.0
 10
223.8413845358584
 20
-50.14430432362805
 30
0.0
 10
224.7524461336567
 20
-51.05447266527229
 30
0.0
 10
225.5966707360597
 20
-51.80431267908109
 30
0.0
 10
226.1573874258009
 20
-52.21836813257046
 30
0.0
 10
226.3789736760615
 20
-52.38199621252112
 30
0.0
  0
LINE
  5
F8
330
1F
100
AcDbEntity
  8
0
  6
Continuous
 62
     7
370
    25
100
AcDbLine
 10
286.1243486197
 20
30.7601177261
 30
0.0
 11
279.0532808078
 21
34.8421582852
 31
0.0
  0
LINE
  5
F9
330
1F
100
AcDbEntity
  8
0
  6
Continuous
 62
     7
370
    25
100
AcDbLine
 10
228.0574254434
 20
-53.4948256776
 30
0.0
 11
235.1284932553
 21
-57.5768662367
 31
0.0
  0
SPLINE
  5
FA
330
1F
100
AcDbEntity
  8
0
  6
Continuous
 62
     7
370
    25
100
AcDbSpline
210
0.0
220
0.0
230
1.0
 70
     8
 71
     3
 72
    63
 73
    59
 74
     0
 42
0.00000001
 43
0.00000001
 40
0.0
 40
0.0
 40
0.0
 40
0.0
 40
0.0026153813433543
 40
0.0206410107724635
 40
0.0386824801541853
 40
0.0567490758331137
 40
0.0748480369667248
 40
0.0929841672000915
 40
0.1111597449623705
 40
0.1293747057995044
 40
0.1476270300433085
 40
0.1659132478318394
 40
0.1842289731077991
 40
0.2025693948009187
 40
0.2209296791478106
 40
0.2393052636988411
 40
0.2576920449567839
 40
0.2760864751367241
 40
0.2944855895067801
 40
0.3128869860956777
 40
0.3312884472033293
 40
0.3496884738071179
 40
0.3680861242304528
 40
0.3864807531647076
 40
0.4048719547133212
 40
0.4232595132686567
 40
0.4416433622982313
 40
0.4600235505054854
 40
0.4784002145320598
 40
0.4967735572687194
 40
0.5151438308582968
 40
0.5335113235514163
 40
0.5518763496794014
 40
0.5702392421177043
 40
0.5886003467162183
 40
0.6069600182639054
 40
0.6253186176324268
 40
0.6436765098064623
 40
0.6620340625579025
 40
0.6803916455582013
 40
0.6987495386667408
 40
0.7171080812061499
 40
0.7354676453132587
 40
0.7538286027329434
 40
0.7721913237289139
 40
0.7905561754582323
 40
0.8089235195785658
 40
0.8272937088172861
 40
0.8456670821735037
 40
0.86404395835166
 40
0.882424626937736
 40
0.9008093367273198
 40
0.9191982805018619
 40
0.937591575433197
 40
0.9559892381917965
 40
0.9743911537673523
 40
0.992797037024628
 40
1.0
 40
1.0
 40
1.0
 40
1.0
 10
236.9244305196473
 20
-58.47575412236979
 30
0.0
 10
236.9794942995902
 20
-58.50163201726066
 30
0.0
 10
237.4140665189969
 20
-58.70586453140957
 30
0.0
 10
238.2676022952091
 20
-59.01284421429312
 30
0.0
 10
239.485036571641
 20
-59.39058034294677
 30
0.0
 10
240.7433545865384
 20
-59.68026059754067
 30
0.0
 10
242.035565757232
 20
-59.89095483437388
 30
0.0
 10
243.3609592352932
 20
-60.01957376281736
 30
0.0
 10
244.716975634558
 20
-60.06641581352999
 30
0.0
 10
246.1013789263724
 20
-60.03103034315735
 30
0.0
 10
247.5116792496094
 20
-59.91336610189637
 30
0.0
 10
248.9453091889509
 20
-59.71349116056426
 30
0.0
 10
250.3996068994868
 20
-59.43168553988776
 30
0.0
 10
251.8718547043773
 20
-59.06842201210205
 30
0.0
 10
253.3593013514007
 20
-58.62436705700242
 30
0.0
 10
254.8591838587379
 20
-58.10036939988907
 30
0.0
 10
256.3687430833622
 20
-57.49744799845302
 30
0.0
 10
257.8852344909345
 20
-56.81677896342589
 30
0.0
 10
259.405934611368
 20
-56.05968345891945
 30
0.0
 10
260.9281353174114
 20
-55.2276221002083
 30
0.0
 10
262.4491525972623
 20
-54.32218422292731
 30
0.0
 10
263.9663318763801
 20
-53.3450780649999
 30
0.0
 10
265.4770564365871
 20
-52.29811778158957
 30
0.0
 10
266.9787393636634
 20
-51.18322236473801
 30
0.0
 10
268.468818604698
 20
-50.00241552205515
 30
0.0
 10
269.9447580350038
 20
-48.75782271056031
 30
0.0
 10
271.4040490989681
 20
-47.45166834091766
 30
0.0
 10
272.8442129760916
 20
-46.08627298789997
 30
0.0
 10
274.2628031986341
 20
-44.66405049149913
 30
0.0
 10
275.6574086377933
 20
-43.18750487250513
 30
0.0
 10
277.025656775666
 20
-41.65922701654883
 30
0.0
 10
278.3652171858801
 20
-40.08189110288478
 30
0.0
 10
279.6738051539246
 20
-38.45825077008999
 30
0.0
 10
280.9491853770622
 20
-36.79113502185422
 30
0.0
 10
282.1891756922577
 20
-35.08344388343185
 30
0.0
 10
283.3916507882934
 20
-33.338143824133
 30
0.0
 10
284.5545458649196
 20
-31.55826296432802
 30
0.0
 10
285.6758602075832
 20
-29.74688608722183
 30
0.0
 10
286.7536606506678
 20
-27.9071494773911
 30
0.0
 10
287.7860831994545
 20
-26.04223869135179
 30
0.0
 10
288.7713376827405
 20
-24.15538130768425
 30
0.0
 10
289.7077115101313
 20
-22.24984023398939
 30
0.0
 10
290.5935738682373
 20
-20.32890477519902
 30
0.0
 10
291.4273770792241
 20
-18.39588686012907
 30
0.0
 10
292.2076584185622
 20
-16.45411643971801
 30
0.0
 10
292.9330422878579
 20
-14.50693577793094
 30
0.0
 10
293.6022421706908
 20
-12.55769377191495
 30
0.0
 10
294.2140623042447
 20
-10.60974037547782
 30
0.0
 10
294.767399298188
 20
-8.666421035134153
 30
0.0
 10
295.2612428389817
 20
-6.731071685848657
 30
0.0
 10
295.6946787283358
 20
-4.807012499241983
 30
0.0
 10
296.0668821995001
 20
-2.897547395738026
 30
0.0
 10
296.377146647478
 20
-1.005943439956074
 30
0.0
 10
296.6247794665745
 20
0.8645129373577136
 30
0.0
 10
296.8094936415967
 20
2.710744473147092
 30
0.0
 10
296.9299485558903
 20
4.529046103895956
 30
0.0
 10
296.9771756266438
 20
5.955107516090963
 30
0.0
 10
296.9807536198479
 20
6.772048684633977
 30
0.0
 10
296.9817599967983
 20
7.00182854025944
 30
0.0
  0
SPLINE
  5
FB
330
1F
100
AcDbEntity
  8
0
  6
Continuous
 62
     7
370
    25
100
AcDbSpline
210
0.0
220
0.0
230
1.0
 70
     8
 71
     3
 72
    25
 73
    21
 74
     0
 42
0.00000001
 43
0.00000001
 40
0.0
 40
0.0
 40
0.0
 40
0.0
 40
0.0309725050299706
 40
0.0897327351448255
 40
0.148503795612616
 40
0.2072741045254761
 40
0.2660364581783812
 40
0.3247823202409671
 40
0.383501226128262
 40
0.442180748496203
 40
0.5008066436333464
 40
0.5593632545993488
 40
0.6178342416609365
 40
0.6762036829030179
 40
0.7344575318512322
 40
0.7925853358805678
 40
0.8505820226937777
 40
0.9084494787591839
 40
0.966197606154877
 40
1.0
 40
1.0
 40
1.0
 40
1.0
 10
296.9817599967983
 20
7.00182854025944
 30
0.0
 10
296.9799665580697
 20
7.30966484184057
 30
0.0
 10
296.9747706540807
 20
8.201520159678541
 30
0.0
 10
296.9170492516229
 20
9.6496429747757
 30
0.0
 10
296.7875175378588
 20
11.33080944506669
 30
0.0
 10
296.5929200524839
 20
12.96892228965491
 30
0.0
 10
296.3345645328529
 20
14.56154794107488
 30
0.0
 10
296.0124783833814
 20
16.10561032294034
 30
0.0
 10
295.6271986207059
 20
17.59828491023183
 30
0.0
 10
295.179306938466
 20
19.03674722254667
 30
0.0
 10
294.6695687891913
 20
20.41825218969107
 30
0.0
 10
294.0989075577796
 20
21.74012886614781
 30
0.0
 10
293.4684268881398
 20
22.99981577184949
 30
0.0
 10
292.7793858716223
 20
24.19484867651236
 30
0.0
 10
292.0332806560928
 20
25.3230237864691
 30
0.0
 10
291.2315010492481
 20
26.38192318819967
 30
0.0
 10
290.3765191983279
 20
27.37080381482886
 30
0.0
 10
289.4673351306809
 20
28.28366667413458
 30
0.0
 10
288.6471422512442
 20
29.01791358298551
 30
0.0
 10
288.1107853172626
 20
29.41699617144699
 30
0.0
 10
287.912750963353
 20
29.56434592597673
 30
0.0
  0
SPLINE
  5
FC
330
1F
100
AcDbEntity
  8
0
  6
Continuous
 62
     7
370
    25
100
AcDbSpline
210
0.0
220
0.0
230
1.0
 70
     8
 71
     3
 72
    15
 73
    11
 74
     0
 42
0.00000001
 43
0.00000001
 40
0.0
 40
0.0
 40
0.0
 40
0.0
 40
0.1185672953180962
 40
0.2561624404627307
 40
0.3870618755364246
 40
0.5261097785844646
 40
0.660288951673366
 40
0.7918519573214243
 40
0.9223324835838768
 40
1.0
 40
1.0
 40
1.0
 40
1.0
 10
282.2765075606365
 20
11.85573401226029
 30
0.0
 10
282.3685569959367
 20
11.7993788817252
 30
0.0
 10
282.5674280921058
 20
11.67762466837545
 30
0.0
 10
282.8280079888846
 20
11.4110414525994
 30
0.0
 10
283.0769625070985
 20
11.06639983598519
 30
0.0
 10
283.2876245784333
 20
10.64768392896965
 30
0.0
 10
283.4553816177947
 20
10.15412190683386
 30
0.0
 10
283.5699753782295
 20
9.604032760164687
 30
0.0
 10
283.6253078412361
 20
9.084625007852111
 30
0.0
 10
283.6306884574436
 20
8.742058455161224
 30
0.0
 10
283.632696158752
 20
8.614234561107985
 30
0.0
  0
SPLINE
  5
FD
330
1F
100
AcDbEntity
  8
0
  6
Continuous
 62
     7
370
    25
100
AcDbSpline
210
0.0
220
0.0
230
1.0
 70
     8
 71
     3
 72
    31
 73
    27
 74
     0
 42
0.00000001
 43
0.00000001
 40
0.0
 40
0.0
 40
0.0
 40
0.0
 40
0.0222572305501596
 40
0.0649421091106225
 40
0.1077514558645477
 40
0.1506919662285941
 40
0.193760054202944
 40
0.2369377663859178
 40
0.2801999825518353
 40
0.3235182590556872
 40
0.3668627286517886
 40
0.4102009540217551
 40
0.4534939735419549
 40
0.4967110030748787
 40
0.5398218017760053
 40
0.5827980581764248
 40
0.6256163325346003
 40
0.6682636682991637
 40
0.7107476134538941
 40
0.7531132529923829
 40
0.7954543954715918
 40
0.8379219228826212
 40
0.8808393676554239
 40
0.9247412012761512
 40
0.970403619516928
 40
1.0
 40
1.0
 40
1.0
 40
1.0
 10
283.632696158752
 20
8.614234561107981
 30
0.0
 10
283.6311471974104
 20
8.499903712446601
 30
0.0
 10
283.6266276406655
 20
8.166309358389645
 30
0.0
 10
283.5755612340661
 20
7.582360433190178
 30
0.0
 10
283.4594571126914
 20
6.858516186410431
 30
0.0
 10
283.2844554171359
 20
6.110581705797622
 30
0.0
 10
283.0525807880182
 20
5.348225687596561
 30
0.0
 10
282.7655215061725
 20
4.580306181792744
 30
0.0
 10
282.4261670998853
 20
3.81604881639493
 30
0.0
 10
282.0381281607101
 20
3.064544670433437
 30
0.0
 10
281.6057943044632
 20
2.334720190201062
 30
0.0
 10
281.1342692597879
 20
1.635224833816225
 30
0.0
 10
280.6293004418734
 20
0.9742695603956291
 30
0.0
 10
280.0972056231935
 20
0.3594969330311254
 30
0.0
 10
279.5447803595258
 20
-0.2021601516882625
 30
0.0
 10
278.979260909451
 20
-0.7045639325872904
 30
0.0
 10
278.4082391198122
 20
-1.142518607930958
 30
0.0
 10
277.8395436050499
 20
-1.51193336317364
 30
0.0
 10
277.2810539843895
 20
-1.810006673017585
 30
0.0
 10
276.7405033451156
 20
-2.035336607405666
 30
0.0
 10
276.2251693141228
 20
-2.18810226667987
 30
0.0
 10
275.7413057639138
 20
-2.269798231665159
 30
0.0
 10
275.2922989792123
 20
-2.284180985212155
 30
0.0
 10
274.8805261776232
 20
-2.230665200601712
 30
0.0
 10
274.5469708788588
 20
-2.136770373446267
 30
0.0
 10
274.3658207666044
 20
-2.032491420529383
 30
0.0
 10
274.2945814200065
 20
-1.991482533605354
 30
0.0
  0
SPLINE
  5
FE
330
1F
100
AcDbEntity
  8
0
  6
Continuous
 62
     7
370
    25
100
AcDbSpline
210
0.0
220
0.0
230
1.0
 70
     8
 71
     3
 72
    15
 73
    11
 74
     0
 42
0.00000001
 43
0.00000001
 40
0.0
 40
0.0
 40
0.0
 40
0.0
 40
0.1185672953180644
 40
0.2561624404627096
 40
0.3870618755363935
 40
0.5261097785844372
 40
0.660288951673334
 40
0.7918519573213952
 40
0.9223324835838554
 40
1.0
 40
1.0
 40
1.0
 40
1.0
 10
257.5631255581666
 20
-30.94909911724593
 30
0.0
 10
257.6551749934669
 20
-31.00545424778099
 30
0.0
 10
257.8540460896359
 20
-31.12720846113071
 30
0.0
 10
258.1146259864148
 20
-31.39379167690674
 30
0.0
 10
258.3635805046287
 20
-31.73843329352095
 30
0.0
 10
258.5742425759635
 20
-32.15714920053644
 30
0.0
 10
258.7419996153249
 20
-32.65071122267223
 30
0.0
 10
258.8565933757597
 20
-33.20080036934139
 30
0.0
 10
258.9119258387663
 20
-33.72020812165403
 30
0.0
 10
258.9173064549738
 20
-34.06277467434496
 30
0.0
 10
258.9193141562822
 20
-34.19059856839824
 30
0.0
  0
SPLINE
  5
FF
330
1F
100
AcDbEntity
  8
0
  6
Continuous
 62
     7
370
    25
100
AcDbSpline
210
0.0
220
0.0
230
1.0
 70
     8
 71
     3
 72
    31
 73
    27
 74
     0
 42
0.00000001
 43
0.00000001
 40
0.0
 40
0.0
 40
0.0
 40
0.0
 40
0.0222572305501593
 40
0.0649421091106102
 40
0.1077514558645377
 40
0.1506919662285827
 40
0.1937600542029335
 40
0.2369377663859109
 40
0.2801999825518253
 40
0.3235182590556799
 40
0.3668627286517789
 40
0.4102009540217463
 40
0.4534939735419483
 40
0.496711003074871
 40
0.5398218017759984
 40
0.5827980581764167
 40
0.6256163325345904
 40
0.6682636682991567
 40
0.7107476134538867
 40
0.7531132529923757
 40
0.7954543954715845
 40
0.8379219228826144
 40
0.8808393676554137
 40
0.9247412012761381
 40
0.9704036195169158
 40
1.0
 40
1.0
 40
1.0
 40
1.0
 10
258.9193141562822
 20
-34.19059856839824
 30
0.0
 10
258.9177651949406
 20
-34.30492941705962
 30
0.0
 10
258.9132456381957
 20
-34.63852377111651
 30
0.0
 10
258.8621792315963
 20
-35.22247269631593
 30
0.0
 10
258.7460751102216
 20
-35.9463169430956
 30
0.0
 10
258.571073414666
 20
-36.69425142370842
 30
0.0
 10
258.3391987855484
 20
-37.4566074419095
 30
0.0
 10
258.0521395037027
 20
-38.22452694771331
 30
0.0
 10
257.7127850974156
 20
-38.98878431311115
 30
0.0
 10
257.3247461582404
 20
-39.74028845907262
 30
0.0
 10
256.8924123019935
 20
-40.470112939305
 30
0.0
 10
256.4208872573182
 20
-41.16960829568985
 30
0.0
 10
255.9159184394037
 20
-41.83056356911047
 30
0.0
 10
255.3838236207238
 20
-42.445336196475
 30
0.0
 10
254.8313983570561
 20
-43.00699328119438
 30
0.0
 10
254.2658789069813
 20
-43.50939706209343
 30
0.0
 10
253.6948571173426
 20
-43.9473517374371
 30
0.0
 10
253.1261616025803
 20
-44.3167664926798
 30
0.0
 10
252.5676719819198
 20
-44.61483980252375
 30
0.0
 10
252.0271213426459
 20
-44.84016973691185
 30
0.0
 10
251.511787311653
 20
-44.99293539618608
 30
0.0
 10
251.0279237614441
 20
-45.07463136117138
 30
0.0
 10
250.5789169767426
 20
-45.08901411471838
 30
0.0
 10
250.1671441751535
 20
-45.03549833010796
 30
0.0
 10
249.8335888763891
 20
-44.94160350295255
 30
0.0
 10
249.6524387641346
 20
-44.83732455003564
 30
0.0
 10
249.5811994175367
 20
-44.7963156631116
 30
0.0
  0
SPLINE
  5
100
330
1F
100
AcDbEntity
  8
0
  6
Continuous
 62
     7
370
    25
100
AcDbSpline
210
0.0
220
0.0
230
1.0
 70
     8
 71
     3
 72
    12
 73
     8
 74
     0
 42
0.00000001
 43
0.00000001
 40
0.0
 40
0.0
 40
0.0
 40
0.0
 40
0.0692595017719113
 40
0.3046979908781767
 40
0.540361926823285
 40
0.7760869534749675
 40
0.9999999999999999
 40
0.9999999999999999
 40
0.9999999999999999
 40
0.9999999999999999
 10
280.9198734399637
 20
1.368283377987889
 30
0.0
 10
280.9500922155621
 20
1.443588114665537
 30
0.0
 10
281.0830357103325
 20
1.774881314620301
 30
0.0
 10
281.369969355454
 20
2.35495057111534
 30
0.0
 10
281.7779417425045
 20
3.096510456437863
 30
0.0
 10
282.2215921523411
 20
3.803117150208514
 30
0.0
 10
282.543604328278
 20
4.240871232297803
 30
0.0
 10
282.7004728114171
 20
4.454123475463693
 30
0.0
  0
SPLINE
  5
101
330
1F
100
AcDbEntity
  8
0
  6
Continuous
 62
     7
370
    25
100
AcDbSpline
210
0.0
220
0.0
230
1.0
 70
     8
 71
     3
 72
    12
 73
     8
 74
     0
 42
0.00000001
 43
0.00000001
 40
0.0
 40
0.0
 40
0.0
 40
0.0
 40
0.0692595017719433
 40
0.3046979908782076
 40
0.5403619268233132
 40
0.7760869534750018
 40
0.9999999999999999
 40
0.9999999999999999
 40
0.9999999999999999
 40
0.9999999999999999
 10
256.2064914374939
 20
-41.43654975151833
 30
0.0
 10
256.2367102130922
 20
-41.36124501484065
 30
0.0
 10
256.3696537078627
 20
-41.02995181488585
 30
0.0
 10
256.6565873529842
 20
-40.4498825583908
 30
0.0
 10
257.0645597400348
 20
-39.70832267306827
 30
0.0
 10
257.5082101498713
 20
-39.00171597929766
 30
0.0
 10
257.8302223258082
 20
-38.56396189720842
 30
0.0
 10
257.9870908089473
 20
-38.35070965404256
 30
0.0
  0
SPLINE
  5
102
330
1F
100
AcDbEntity
  8
0
  6
Continuous
 62
     7
370
    25
100
AcDbSpline
210
0.0
220
0.0
230
1.0
 70
     8
 71
     3
 72
    18
 73
    14
 74
     0
 42
0.00000001
 43
0.00000001
 40
0.0
 40
0.0
 40
0.0
 40
0.0
 40
0.060775243006561
 40
0.1590030973095978
 40
0.2565015988619467
 40
0.3526965634052572
 40
0.4474789985855853
 40
0.5410491849193828
 40
0.6337167586461412
 40
0.7257801048541029
 40
0.8174800579125977
 40
0.9089931714996287
 40
1.0
 40
1.0
 40
1.0
 40
1.0
 10
262.0908076960679
 20
5.36336260570584
 30
0.0
 10
262.2097633237603
 20
5.294086101243167
 30
0.0
 10
262.5209807259426
 20
5.112841597142082
 30
0.0
 10
262.9732929484876
 20
4.733797470896552
 30
0.0
 10
263.4504294705438
 20
4.237038911767483
 30
0.0
 10
263.8743044801904
 20
3.666610136446997
 30
0.0
 10
264.2452155447614
 20
3.030992553320465
 30
0.0
 10
264.5614952891823
 20
2.332898195236164
 30
0.0
 10
264.822383910379
 20
1.575737941884835
 30
0.0
 10
265.0273236510002
 20
0.7627925865144776
 30
0.0
 10
265.1738084887961
 20
-0.1035462225514629
 30
0.0
 10
265.266083803775
 20
-1.014406678613595
 30
0.0
 10
265.2775553327124
 20
-1.65783761555385
 30
0.0
 10
265.2832751869634
 20
-1.978660689790388
 30
0.0
  0
SPLINE
  5
103
330
1F
100
AcDbEntity
  8
0
  6
Continuous
 62
     7
370
    25
100
AcDbSpline
210
0.0
220
0.0
230
1.0
 70
     8
 71
     3
 72
    41
 73
    37
 74
     0
 42
0.00000001
 43
0.00000001
 40
0.0
 40
0.0
 40
0.0
 40
0.0
 40
0.015759764322033
 40
0.0458635367077155
 40
0.0759962855788004
 40
0.1061573463771971
 40
0.136349221778713
 40
0.1665714321362787
 40
0.1968215962568839
 40
0.2270961588555204
 40
0.257390865195306
 40
0.2877010605913588
 40
0.3180218712238882
 40
0.3483483066762795
 40
0.3786753132263883
 40
0.4089962524043642
 40
0.4393058696780163
 40
0.4695990633126243
 40
0.4998707904100235
 40
0.5301161666832962
 40
0.560330643580913
 40
0.5905103028066045
 40
0.6206523239759906
 40
0.6507557014231998
 40
0.6808223099818002
 40
0.7108584425202662
 40
0.7408769525546776
 40
0.7708945083032642
 40
0.8009388735109516
 40
0.8310562081214309
 40
0.8613117388833973
 40
0.8917910001633236
 40
0.9225946599456514
 40
0.9538197865894994
 40
0.9855193005846676
 40
1.0
 40
1.0
 40
1.0
 40
1.0
 10
265.2832751869634
 20
-1.978660689790388
 30
0.0
 10
265.2816225237158
 20
-2.150478203654945
 30
0.0
 10
265.2768129986512
 20
-2.650495760588758
 30
0.0
 10
265.223016104906
 20
-3.507674603780358
 30
0.0
 10
265.1016754493714
 20
-4.556320571590008
 30
0.0
 10
264.919263012666
 20
-5.631871571150815
 30
0.0
 10
264.6773764364765
 20
-6.72776272082894
 30
0.0
 10
264.3766828585378
 20
-7.838258390178869
 30
0.0
 10
264.0185794535938
 20
-8.957270227671877
 30
0.0
 10
263.6047380124409
 20
-10.07871631858436
 30
0.0
 10
263.1372096757069
 20
-11.19648357447134
 30
0.0
 10
262.6183766932779
 20
-12.30449074749728
 30
0.0
 10
262.0509438612788
 20
-13.39671998169476
 30
0.0
 10
261.4379186642615
 20
-14.46725353577696
 30
0.0
 10
260.7826052678645
 20
-15.51028913018117
 30
0.0
 10
260.0885793962339
 20
-16.52019117819634
 30
0.0
 10
259.3596684137653
 20
-17.49152601992473
 30
0.0
 10
258.5999180998402
 20
-18.41910961596368
 30
0.0
 10
257.8135828326641
 20
-19.29802361845737
 30
0.0
 10
257.0051058041818
 20
-20.1236470585736
 30
0.0
 10
256.1790960101653
 20
-20.89169090695752
 30
0.0
 10
255.3403019664792
 20
-21.59823415046812
 30
0.0
 10
254.493580466867
 20
-22.23976140569438
 30
0.0
 10
253.6438580402254
 20
-22.81320153085142
 30
0.0
 10
252.7960818879087
 20
-23.31596582032303
 30
0.0
 10
251.955156548722
 20
-23.74598218249832
 30
0.0
 10
251.1259125978303
 20
-24.1016984132891
 30
0.0
 10
250.3130146213772
 20
-24.38210358033127
 30
0.0
 10
249.520798443936
 20
-24.58674622680155
 30
0.0
 10
248.7530954492256
 20
-24.7156293918063
 30
0.0
 10
248.012978786292
 20
-24.7691960684593
 30
0.0
 10
247.3030121723826
 20
-24.74746693228903
 30
0.0
 10
246.623994322972
 20
-24.65189747803757
 30
0.0
 10
245.9801272565497
 20
-24.4766156305838
 30
0.0
 10
245.4760658936846
 20
-24.2842463347073
 30
0.0
 10
245.2027656656005
 20
-24.12217273527104
 30
0.0
 10
245.1170670912381
 20
-24.07135142234779
 30
0.0
  0
SPLINE
  5
104
330
1F
100
AcDbEntity
  8
0
  6
Continuous
 62
     7
370
    25
100
AcDbSpline
210
0.0
220
0.0
230
1.0
 70
     8
 71
     3
 72
    39
 73
    35
 74
     0
 42
0.00000001
 43
0.00000001
 40
0.0
 40
0.0
 40
0.0
 40
0.0
 40
0.0043602751103643
 40
0.0368076143329913
 40
0.069108752315508
 40
0.1013311105074791
 40
0.1335215932907741
 40
0.1657073375896762
 40
0.1979053960760631
 40
0.2301285478879182
 40
0.2623829831509515
 40
0.2946704806987959
 40
0.3269899485281584
 40
0.3593384791257824
 40
0.3917120530943247
 40
0.4241059948633103
 40
0.4565152575528299
 40
0.4889345927145711
 40
0.5213586448053745
 40
0.5537817180994684
 40
0.5861968346196069
 40
0.6185985301465448
 40
0.6509813588260411
 40
0.6833399576149659
 40
0.7156691697243844
 40
0.7479642597571892
 40
0.780221266998135
 40
0.8124375612291465
 40
0.8446126882234057
 40
0.8767496179385145
 40
0.908856531325408
 40
0.9409492863959952
 40
0.9730458116001329
 40
1.0
 40
1.0
 40
1.0
 40
1.0
 10
249.4619712096986
 20
-24.5846682330666
 30
0.0
 10
249.4496812846409
 20
-24.55183196852855
 30
0.0
 10
249.345934890146
 20
-24.27464199068064
 30
0.0
 10
249.2019425847636
 20
-23.69418679799107
 30
0.0
 10
249.0365771402529
 20
-22.84569545362446
 30
0.0
 10
248.9344910340809
 20
-21.94119725959046
 30
0.0
 10
248.8901298565518
 20
-20.99275340203834
 30
0.0
 10
248.9060057933658
 20
-20.00294999513872
 30
0.0
 10
248.9821020021929
 20
-18.97742963056789
 30
0.0
 10
249.1186432259833
 20
-17.92140330770582
 30
0.0
 10
249.3153280536478
 20
-16.84050283228848
 30
0.0
 10
249.5715145481608
 20
-15.74052370689337
 30
0.0
 10
249.8861647508682
 20
-14.62742755847094
 30
0.0
 10
250.2578662636612
 20
-13.50726907842101
 30
0.0
 10
250.6848405149045
 20
-12.38615143613271
 30
0.0
 10
251.1649588199938
 20
-11.27018100981802
 30
0.0
 10
251.6957586314098
 20
-10.16542780710903
 30
0.0
 10
252.2744608895916
 20
-9.077888515563039
 30
0.0
 10
252.8979858193895
 20
-8.013454930740602
 30
0.0
 10
253.5629615511618
 20
-6.977893556990551
 30
0.0
 10
254.2657499736875
 20
-5.976794374605773
 30
0.0
 10
255.0024682743949
 20
-5.015534860189626
 30
0.0
 10
255.7690194373053
 20
-4.099236800565199
 30
0.0
 10
256.5611015992047
 20
-3.232750062748653
 30
0.0
 10
257.3742295140988
 20
-2.420618596807481
 30
0.0
 10
258.203757669103
 20
-1.667047135909275
 30
0.0
 10
259.0449096737982
 20
-0.9758587410866187
 30
0.0
 10
259.8928032383919
 20
-0.3504792082247958
 30
0.0
 10
260.7425199053122
 20
0.2061848371269943
 30
0.0
 10
261.5890492177938
 20
0.6914735889662558
 30
0.0
 10
262.4277585557012
 20
1.104161770893085
 30
0.0
 10
263.2529053388311
 20
1.440142744634582
 30
0.0
 10
264.0197764527596
 20
1.694097733905813
 30
0.0
 10
264.4980130017627
 20
1.799176270793994
 30
0.0
 10
264.7163080443591
 20
1.847140241205258
 30
0.0
  0
SPLINE
  5
105
330
1F
100
AcDbEntity
  8
0
  6
Continuous
 62
     7
370
    25
100
AcDbSpline
210
0.0
220
0.0
230
1.0
 70
     8
 71
     3
 72
    15
 73
    11
 74
     0
 42
0.00000001
 43
0.00000001
 40
0.0
 40
0.0
 40
0.0
 40
0.0
 40
0.1185672953180969
 40
0.2561624404627298
 40
0.3870618755364161
 40
0.5261097785844626
 40
0.6602889516733608
 40
0.7918519573214199
 40
0.9223324835838843
 40
1.0
 40
1.0
 40
1.0
 40
1.0
 10
257.5631255581689
 20
26.12710363356668
 30
0.0
 10
257.6551749934691
 20
26.0707485030316
 30
0.0
 10
257.8540460896382
 20
25.94899428968186
 30
0.0
 10
258.1146259864171
 20
25.68241107390579
 30
0.0
 10
258.3635805046309
 20
25.33776945729159
 30
0.0
 10
258.5742425759657
 20
24.91905355027607
 30
0.0
 10
258.7419996153272
 20
24.42549152814027
 30
0.0
 10
258.856593375762
 20
23.87540238147109
 30
0.0
 10
258.9119258387685
 20
23.3559946291585
 30
0.0
 10
258.9173064549761
 20
23.0134280764676
 30
0.0
 10
258.9193141562844
 20
22.88560418241438
 30
0.0
  0
SPLINE
  5
106
330
1F
100
AcDbEntity
  8
0
  6
Continuous
 62
     7
370
    25
100
AcDbSpline
210
0.0
220
0.0
230
1.0
 70
     8
 71
     3
 72
    31
 73
    27
 74
     0
 42
0.00000001
 43
0.00000001
 40
0.0
 40
0.0
 40
0.0
 40
0.0
 40
0.0222572305501594
 40
0.0649421091106102
 40
0.1077514558645377
 40
0.1506919662285827
 40
0.1937600542029336
 40
0.236937766385911
 40
0.2801999825518261
 40
0.3235182590556808
 40
0.3668627286517797
 40
0.4102009540217475
 40
0.4534939735419465
 40
0.4967110030748715
 40
0.5398218017759958
 40
0.5827980581764178
 40
0.6256163325345948
 40
0.6682636682991582
 40
0.7107476134538881
 40
0.7531132529923761
 40
0.7954543954715849
 40
0.8379219228826162
 40
0.8808393676554193
 40
0.9247412012761463
 40
0.9704036195169218
 40
1.0
 40
1.0
 40
1.0
 40
1.0
 10
258.9193141562844
 20
22.88560418241438
 30
0.0
 10
258.9177651949428
 20
22.771273333753
 30
0.0
 10
258.913245638198
 20
22.43767897969611
 30
0.0
 10
258.8621792315985
 20
21.85373005449671
 30
0.0
 10
258.7460751102238
 20
21.12988580771702
 30
0.0
 10
258.5710734146683
 20
20.3819513271042
 30
0.0
 10
258.3391987855506
 20
19.61959530890313
 30
0.0
 10
258.052139503705
 20
18.85167580309932
 30
0.0
 10
257.7127850974179
 20
18.08741843770146
 30
0.0
 10
257.3247461582426
 20
17.33591429173998
 30
0.0
 10
256.8924123019958
 20
16.6060898115076
 30
0.0
 10
256.4208872573205
 20
15.90659445512276
 30
0.0
 10
255.915918439406
 20
15.24563918170214
 30
0.0
 10
255.3838236207261
 20
14.63086655433765
 30
0.0
 10
254.8313983570584
 20
14.06920946961824
 30
0.0
 10
254.2658789069835
 20
13.5668056887192
 30
0.0
 10
253.6948571173448
 20
13.1288510133755
 30
0.0
 10
253.1261616025824
 20
12.75943625813281
 30
0.0
 10
252.567671981922
 20
12.46136294828886
 30
0.0
 10
252.0271213426481
 20
12.23603301390077
 30
0.0
 10
251.5117873116553
 20
12.08326735462654
 30
0.0
 10
251.0279237614463
 20
12.00157138964125
 30
0.0
 10
250.5789169767448
 20
11.98718863609424
 30
0.0
 10
250.1671441751557
 20
12.04070442070467
 30
0.0
 10
249.8335888763913
 20
12.13459924786011
 30
0.0
 10
249.6524387641369
 20
12.238878200777
 30
0.0
 10
249.5811994175389
 20
12.27988708770103
 30
0.0
  0
SPLINE
  5
107
330
1F
100
AcDbEntity
  8
0
  6
Continuous
 62
     7
370
    25
100
AcDbSpline
210
0.0
220
0.0
230
1.0
 70
     8
 71
     3
 72
    15
 73
    11
 74
     0
 42
0.00000001
 43
0.00000001
 40
0.0
 40
0.0
 40
0.0
 40
0.0
 40
0.1185672953180687
 40
0.2561624404627093
 40
0.387061875536394
 40
0.5261097785844348
 40
0.6602889516733363
 40
0.7918519573213996
 40
0.9223324835838564
 40
1.0
 40
1.0
 40
1.0
 40
1.0
 10
232.8497435556991
 20
-16.67772949593954
 30
0.0
 10
232.9417929909993
 20
-16.73408462647461
 30
0.0
 10
233.1406640871684
 20
-16.85583883982434
 30
0.0
 10
233.4012439839472
 20
-17.12242205560036
 30
0.0
 10
233.6501985021611
 20
-17.46706367221456
 30
0.0
 10
233.8608605734959
 20
-17.88577957923007
 30
0.0
 10
234.0286176128573
 20
-18.37934160136585
 30
0.0
 10
234.1432113732922
 20
-18.92943074803502
 30
0.0
 10
234.1985438362987
 20
-19.44883850034765
 30
0.0
 10
234.2039244525062
 20
-19.79140505303858
 30
0.0
 10
234.2059321538146
 20
-19.91922894709185
 30
0.0
  0
SPLINE
  5
108
330
1F
100
AcDbEntity
  8
0
  6
Continuous
 62
     7
370
    25
100
AcDbSpline
210
0.0
220
0.0
230
1.0
 70
     8
 71
     3
 72
    31
 73
    27
 74
     0
 42
0.00000001
 43
0.00000001
 40
0.0
 40
0.0
 40
0.0
 40
0.0
 40
0.0222572305501597
 40
0.0649421091106104
 40
0.1077514558645367
 40
0.1506919662285844
 40
0.1937600542029324
 40
0.2369377663859093
 40
0.2801999825518265
 40
0.32351825905568
 40
0.3668627286517792
 40
0.4102009540217459
 40
0.4534939735419473
 40
0.4967110030748685
 40
0.5398218017759951
 40
0.5827980581764151
 40
0.6256163325345907
 40
0.668263668299155
 40
0.7107476134538853
 40
0.7531132529923734
 40
0.7954543954715828
 40
0.8379219228826128
 40
0.8808393676554155
 40
0.9247412012761393
 40
0.9704036195169162
 40
0.9999999999999999
 40
0.9999999999999999
 40
0.9999999999999999
 40
0.9999999999999999
 10
234.2059321538146
 20
-19.91922894709185
 30
0.0
 10
234.204383192473
 20
-20.03355979575323
 30
0.0
 10
234.1998636357281
 20
-20.36715414981013
 30
0.0
 10
234.1487972291287
 20
-20.95110307500952
 30
0.0
 10
234.0326931077541
 20
-21.67494732178922
 30
0.0
 10
233.8576914121985
 20
-22.42288180240202
 30
0.0
 10
233.6258167830809
 20
-23.1852378206031
 30
0.0
 10
233.3387575012352
 20
-23.95315732640691
 30
0.0
 10
232.9994030949481
 20
-24.71741469180476
 30
0.0
 10
232.6113641557728
 20
-25.46891883776624
 30
0.0
 10
232.179030299526
 20
-26.19874331799862
 30
0.0
 10
231.7075052548507
 20
-26.89823867438346
 30
0.0
 10
231.2025364369362
 20
-27.55919394780407
 30
0.0
 10
230.6704416182563
 20
-28.17396657516858
 30
0.0
 10
230.1180163545885
 20
-28.73562365988797
 30
0.0
 10
229.5524969045138
 20
-29.238027440787
 30
0.0
 10
228.981475114875
 20
-29.6759821161307
 30
0.0
 10
228.4127796001127
 20
-30.04539687137339
 30
0.0
 10
227.8542899794522
 20
-30.34347018121736
 30
0.0
 10
227.3137393401784
 20
-30.56880011560545
 30
0.0
 10
226.7984053091855
 20
-30.72156577487969
 30
0.0
 10
226.3145417589765
 20
-30.80326173986498
 30
0.0
 10
225.8655349742751
 20
-30.81764449341199
 30
0.0
 10
225.4537621726859
 20
-30.76412870880158
 30
0.0
 10
225.1202068739215
 20
-30.67023388164613
 30
0.0
 10
224.9390567616671
 20
-30.56595492872924
 30
0.0
 10
224.8678174150691
 20
-30.5249460418052
 30
0.0
  0
SPLINE
  5
109
330
1F
100
AcDbEntity
  8
0
  6
Continuous
 62
     7
370
    25
100
AcDbSpline
210
0.0
220
0.0
230
1.0
 70
     8
 71
     3
 72
    12
 73
     8
 74
     0
 42
0.00000001
 43
0.00000001
 40
0.0
 40
0.0
 40
0.0
 40
0.0
 40
0.0692595017719101
 40
0.3046979908781718
 40
0.540361926823269
 40
0.7760869534749425
 40
1.0
 40
1.0
 40
1.0
 40
1.0
 10
256.2064914374961
 20
15.63965299929427
 30
0.0
 10
256.2367102130945
 20
15.71495773597192
 30
0.0
 10
256.3696537078649
 20
16.04625093592668
 30
0.0
 10
256.6565873529864
 20
16.6263201924217
 30
0.0
 10
257.0645597400369
 20
17.36788007774422
 30
0.0
 10
257.5082101498735
 20
18.07448677151488
 30
0.0
 10
257.8302223258104
 20
18.51224085360419
 30
0.0
 10
257.9870908089495
 20
18.7254930967701
 30
0.0
  0
SPLINE
  5
10A
330
1F
100
AcDbEntity
  8
0
  6
Continuous
 62
     7
370
    25
100
AcDbSpline
210
0.0
220
0.0
230
1.0
 70
     8
 71
     3
 72
    12
 73
     8
 74
     0
 42
0.00000001
 43
0.00000001
 40
0.0
 40
0.0
 40
0.0
 40
0.0
 40
0.0692595017718956
 40
0.3046979908781615
 40
0.5403619268232519
 40
0.7760869534749308
 40
1.0
 40
1.0
 40
1.0
 40
1.0
 10
231.4931094350263
 20
-27.16518013021195
 30
0.0
 10
231.5233282106247
 20
-27.08987539353432
 30
0.0
 10
231.6562717053951
 20
-26.75858219357957
 30
0.0
 10
231.9432053505166
 20
-26.17851293708455
 30
0.0
 10
232.3511777375671
 20
-25.43695305176205
 30
0.0
 10
232.7948281474037
 20
-24.73034635799138
 30
0.0
 10
233.1168403233407
 20
-24.29259227590205
 30
0.0
 10
233.2737088064797
 20
-24.07934003273613
 30
0.0
  0
LWPOLYLINE
  5
10B
330
1F
100
AcDbEntity
  8
0
  6
Continuous
 62
     7
370
    25
100
AcDbPolyline
 90
      142
 70
   128
 43
0.0
 10
288.2035854037
 20
11.4920731553
 10
288.1684880272
 20
13.290527984
 10
288.0632655802
 20
15.0448895787
 10
287.8881269722
 20
16.7516748168
 10
287.6434199246
 20
18.4074950343
 10
287.3296302807
 20
20.0090627534
 10
286.9473810407
 20
21.5531982097
 10
286.4974311252
 20
23.036835665
 10
285.980673868
 20
24.4570294947
 10
285.3981352428
 20
25.8109600352
 10
284.7509718262
 20
27.0959391828
 10
284.0404685012
 20
28.3094157304
 10
283.2680359063
 20
29.4489804327
 10
282.4352076351
 20
30.5123707893
 10
281.543637191
 20
31.4974755371
 10
280.5950947045
 20
32.402338842
 10
279.591463419
 20
33.2251641814
 10
278.5347359514
 20
33.964317912
 10
277.4270103363
 20
34.6183325123
 10
276.2704858605
 20
35.185909497
 10
275.0674586962
 20
35.6659219944
 10
273.8203173425
 20
36.0574169842
 10
272.531537883
 20
36.3596171892
 10
271.2036790702
 20
36.5719226191
 10
269.8393772448
 20
36.693911761
 10
268.4413411017
 20
36.7253424167
 10
267.0123463124
 20
36.6661521836
 10
265.5552300136
 20
36.5164585784
 10
264.0728851751
 20
36.276558804
 10
262.5682548551
 20
35.946929159
 10
261.0443263579
 20
35.5282240928
 10
259.5041253026
 20
35.0212749053
 10
257.9507096156
 20
34.4270880973
 10
256.3871634602
 20
33.7468433718
 10
254.8165911124
 20
32.9818912915
 10
253.2421107982
 20
32.1337505982
 10
251.6668485027
 20
31.2041051966
 10
250.0939317632
 20
30.1948008116
 10
248.5264834603
 20
29.1078413237
 10
246.9676156176
 20
27.9453847903
 10
245.4204232229
 20
26.7097391612
 10
243.8879780834
 20
25.4033576965
 10
242.3733227272
 20
24.0288340956
 10
240.8794643622
 20
22.588897348
 10
239.409368906
 20
21.0864063147
 10
237.9659550969
 20
19.5243440526
 10
236.5520886996
 20
17.9058118917
 10
235.1705768148
 20
16.2340232779
 10
233.8241623065
 20
14.5122973927
 10
232.5155183561
 20
12.7440525634
 10
231.2472431551
 20
10.9327994765
 10
230.0218547464
 20
9.0821342073
 10
228.8417860253
 20
7.1957310804
 10
227.7093799091
 20
5.2773353747
 10
226.6268846852
 20
3.3307558871
 10
225.5964495477
 20
1.3598573711
 10
224.6201203302
 20
-0.6314471366
 10
223.6998354439
 20
-2.6392040855
 10
222.8374220294
 20
-4.6594272598
 10
222.0345923287
 20
-6.6881056935
 10
221.2929402858
 20
-8.7212116334
 10
220.6139383821
 20
-10.7547085357
 10
219.9989347131
 20
-12.7845590806
 10
219.4491503118
 20
-14.8067331878
 10
218.965676724
 20
-16.8172160176
 10
218.5494738419
 20
-18.8120159427
 10
218.2013679977
 20
-20.7871724723
 10
217.9220503234
 20
-22.7387641161
 10
217.7120753784
 20
-24.6629161693
 10
217.5718600485
 20
-26.5558084064
 10
217.5016827183
 20
-28.4136826648
 10
217.5016827183
 20
-30.2328503074
 10
217.5718600485
 20
-32.009699545
 10
217.7120753784
 20
-33.740702608
 10
217.9220503234
 20
-35.4224227501
 10
218.2013679977
 20
-37.0515210716
 10
218.5494738419
 20
-38.6247631486
 10
218.965676724
 20
-40.1390254545
 10
219.4491503118
 20
-41.5913015617
 10
219.9989347131
 20
-42.9787081104
 10
220.6139383821
 20
-44.2984905333
 10
221.2929402858
 20
-45.5480285247
 10
222.0345923287
 20
-46.7248412425
 10
222.8374220294
 20
-47.8265922339
 10
223.6998354439
 20
-48.8510940744
 10
224.6201203302
 20
-49.7963127104
 10
225.5964495477
 20
-50.6603714977
 10
226.6268846852
 20
-51.4415549277
 10
227.7093799091
 20
-52.138312033
 10
228.8417860253
 20
-52.7492594667
 10
230.0218547464
 20
-53.2731842494
 10
231.2472431551
 20
-53.7090461769
 10
232.5155183561
 20
-54.0559798856
 10
233.8241623065
 20
-54.3132965708
 10
235.1705768148
 20
-54.4804853541
 10
236.5520886996
 20
-54.5572142975
 10
237.9659550969
 20
-54.5433310629
 10
239.409368906
 20
-54.4388632141
 10
240.8794643622
 20
-54.2440181625
 10
242.3733227272
 20
-53.9591827547
 10
243.8879780834
 20
-53.5849225052
 10
245.4204232229
 20
-53.121980473
 10
246.9676156176
 20
-52.5712757867
 10
248.5264834603
 20
-51.9339018194
 10
250.0939317632
 20
-51.2111240182
 10
251.6668485027
 20
-50.4043773915
 10
253.2421107982
 20
-49.51526366
 10
254.8165911124
 20
-48.5455480767
 10
256.3871634602
 20
-47.4971559223
 10
257.9507096156
 20
-46.3721686822
 10
259.5041253026
 20
-45.1728199145
 10
261.0443263579
 20
-43.9014908152
 10
262.5682548551
 20
-42.5607054905
 10
264.0728851751
 20
-41.1531259455
 10
265.5552300136
 20
-39.6815467992
 10
267.0123463124
 20
-38.1488897357
 10
268.4413411017
 20
-36.5581977037
 10
269.8393772448
 20
-34.9126288751
 10
271.2036790702
 20
-33.2154503745
 10
272.531537883
 20
-31.4700317926
 10
273.8203173425
 20
-29.6798384964
 10
275.0674586962
 20
-27.8484247491
 10
276.2704858605
 20
-25.9794266532
 10
277.4270103363
 20
-24.0765549313
 10
278.5347359514
 20
-22.1435875591
 10
279.591463419
 20
-20.1843622645
 10
280.5950947045
 20
-18.2027689078
 10
281.543637191
 20
-16.2027417593
 10
282.4352076351
 20
-14.1882516877
 10
283.2680359063
 20
-12.1632982766
 10
284.0404685012
 20
-10.1319018835
 10
284.7509718262
 20
-8.0980956581
 10
285.3981352428
 20
-6.0659175342
 10
285.980673868
 20
-4.0394022134
 10
286.4974311252
 20
-2.0225731543
 10
286.9473810407
 20
-0.0194345844
 10
287.3296302807
 20
1.9660364502
 10
287.6434199246
 20
3.9298979806
 10
287.8881269722
 20
5.8682509413
 10
288.0632655802
 20
7.7772469122
 10
288.1684880272
 20
9.6530957582
 10
288.2035854037
 20
11.4920731553
  0
ARC
  5
10C
330
1F
100
AcDbEntity
  8
0
  6
Continuous
 62
     7
370
    25
100
AcDbCircle
 10
236.5837346205
 20
-38.7254339422
 30
0.0
 40
17.05373642646083
100
AcDbArc
 50
233.4869310999
 51
246.9669610083
  0
ARC
  5
10D
330
1F
100
AcDbEntity
  8
0
  6
Continuous
 62
     7
370
    25
100
AcDbCircle
 10
270.5278040918
 20
20.0738710917
 30
0.0
 40
17.05236954644614
100
AcDbArc
 50
53.1781325002
 51
66.5534469631
  0
LWPOLYLINE
  5
10E
330
1F
100
AcDbEntity
  8
0
  6
Continuous
 62
     7
370
    25
100
AcDbPolyline
 90
        3
 70
   128
 43
0.0
 10
287.8512770046
 20
29.617974469
 10
286.9584642008
 20
30.2460103056
 10
286.1243486197
 20
30.7601177261
  0
ARC
  5
10F
330
1F
100
AcDbEntity
  8
0
  6
Continuous
 62
     7
370
    25
100
AcDbCircle
 10
243.6613686353
 20
-42.7922671566
 30
0.0
 40
17.0702762781536
100
AcDbArc
 50
240.0087694139
 51
246.5000255419
  0
LWPOLYLINE
  5
110
330
1F
100
AcDbEntity
  8
0
  6
Continuous
 62
     7
370
    25
100
AcDbPolyline
 90
       60
 70
   128
 43
0.0
 10
259.2122073751
 20
-33.7823945125
 10
259.1761542644
 20
-34.5843442519
 10
259.0684034285
 20
-35.4188336159
 10
258.8901757273
 20
-36.2764075065
 10
258.643490552
 20
-37.1473492689
 10
258.3311429442
 20
-38.021790785
 10
257.9566719271
 20
-38.8898242828
 10
257.5243204069
 20
-39.7416145961
 10
257.038987099
 20
-40.5675106003
 10
256.5061710239
 20
-41.3581545635
 10
255.9319092006
 20
-42.1045881739
 10
255.3227082449
 20
-42.7983540402
 10
254.6854706472
 20
-43.4315915181
 10
254.0274165639
 20
-43.9971257738
 10
253.3560020109
 20
-44.4885490783
 10
252.6788343834
 20
-44.9002934092
 10
252.003586261
 20
-45.2276935387
 10
251.3379084749
 20
-45.4670398925
 10
250.6893434203
 20
-45.6156205807
 10
250.0652395986
 20
-45.6717521249
 10
249.4726683553
 20
-45.6347985321
 10
248.9183437594
 20
-45.5051785014
 10
248.4085465301
 20
-45.2843606795
 10
247.9490528738
 20
-44.9748470205
 10
247.5450690371
 20
-44.5801444379
 10
247.2011723183
 20
-44.1047250696
 10
246.9212592046
 20
-43.5539756071
 10
246.7085012236
 20
-42.9341362619
 10
246.5653090081
 20
-42.2522300613
 10
246.4933049832
 20
-41.5159832752
 10
246.4933049832
 20
-40.7337378738
 10
246.5653090081
 20
-39.9143570101
 10
246.7085012236
 20
-39.0671245966
 10
246.9212592046
 20
-38.2016401152
 10
247.2011723183
 20
-37.3277098508
 10
247.5450690371
 20
-36.4552357826
 10
247.9490528738
 20
-35.5941033904
 10
248.4085465301
 20
-34.7540696482
 10
248.9183437594
 20
-33.944652474
 10
249.4726683553
 20
-33.1750228879
 10
250.0652395986
 20
-32.4539011005
 10
250.6893434203
 20
-31.7894577099
 10
251.3379084749
 20
-31.1892211252
 10
252.003586261
 20
-30.6599922668
 10
252.6788343834
 20
-30.2077675089
 10
253.3560020109
 20
-29.837670739
 10
254.0274165639
 20
-29.5538953012
 10
254.6854706472
 20
-29.3596564847
 10
255.3227082449
 20
-29.2571550928
 10
255.9319092006
 20
-29.2475525073
 10
256.5061710239
 20
-29.3309575294
 10
257.038987099
 20
-29.5064251467
 10
257.5243204069
 20
-29.7719672411
 10
257.9566719271
 20
-30.1245751146
 10
258.3311429442
 20
-30.560253579
 10
258.643490552
 20
-31.0740662233
 10
258.8901757273
 20
-31.6601913448
 10
259.0684034285
 20
-32.3119879118
 10
259.1761542644
 20
-33.0220708087
 10
259.2122073751
 20
-33.7823945125
  0
LWPOLYLINE
  5
111
330
1F
100
AcDbEntity
  8
0
  6
Continuous
 62
     7
370
    25
100
AcDbPolyline
 90
       60
 70
   128
 43
0.0
 10
259.2122073751
 20
23.2938082383
 10
259.1761542644
 20
22.4918584989
 10
259.0684034285
 20
21.6573691349
 10
258.8901757273
 20
20.7997952443
 10
258.643490552
 20
19.9288534819
 10
258.3311429442
 20
19.0544119659
 10
257.9566719271
 20
18.186378468
 10
257.5243204069
 20
17.3345881547
 10
257.038987099
 20
16.5086921505
 10
256.5061710239
 20
15.7180481873
 10
255.9319092006
 20
14.9716145769
 10
255.3227082449
 20
14.2778487106
 10
254.6854706472
 20
13.6446112327
 10
254.0274165639
 20
13.079076977
 10
253.3560020109
 20
12.5876536725
 10
252.6788343834
 20
12.1759093416
 10
252.003586261
 20
11.8485092121
 10
251.3379084749
 20
11.6091628583
 10
250.6893434204
 20
11.4605821701
 10
250.0652395986
 20
11.4044506259
 10
249.4726683553
 20
11.4414042187
 10
248.9183437594
 20
11.5710242494
 10
248.4085465301
 20
11.7918420714
 10
247.9490528738
 20
12.1013557303
 10
247.5450690371
 20
12.4960583129
 10
247.2011723183
 20
12.9714776812
 10
246.9212592047
 20
13.5222271437
 10
246.7085012236
 20
14.1420664889
 10
246.5653090081
 20
14.8239726895
 10
246.4933049832
 20
15.5602194756
 10
246.4933049832
 20
16.342464877
 10
246.5653090081
 20
17.1618457407
 10
246.7085012236
 20
18.0090781542
 10
246.9212592047
 20
18.8745626356
 10
247.2011723183
 20
19.7484929
 10
247.5450690371
 20
20.6209669682
 10
247.9490528738
 20
21.4820993604
 10
248.4085465301
 20
22.3221331026
 10
248.9183437594
 20
23.1315502768
 10
249.4726683553
 20
23.9011798629
 10
250.0652395986
 20
24.6223016503
 10
250.6893434204
 20
25.2867450409
 10
251.3379084749
 20
25.8869816256
 10
252.003586261
 20
26.4162104841
 10
252.6788343834
 20
26.8684352419
 10
253.3560020109
 20
27.2385320118
 10
254.0274165639
 20
27.5223074496
 10
254.6854706472
 20
27.7165462661
 10
255.3227082449
 20
27.819047658
 10
255.9319092006
 20
27.8286502435
 10
256.5061710239
 20
27.7452452214
 10
257.038987099
 20
27.5697776041
 10
257.5243204069
 20
27.3042355097
 10
257.9566719271
 20
26.9516276362
 10
258.3311429442
 20
26.5159491718
 10
258.643490552
 20
26.0021365276
 10
258.8901757273
 20
25.416011406
 10
259.0684034285
 20
24.764214839
 10
259.1761542644
 20
24.0541319422
 10
259.2122073751
 20
23.2938082383
  0
LWPOLYLINE
  5
112
330
1F
100
AcDbEntity
  8
0
  6
Continuous
 62
     7
370
    25
100
AcDbPolyline
 90
       85
 70
   128
 43
0.0
 10
265.5761684058
 20
-1.5704566339
 10
265.5405785542
 20
-2.6893653011
 10
265.4340080325
 20
-3.843107745
 10
265.2570528261
 20
-5.0252317701
 10
265.0107025404
 20
-6.2291264591
 10
264.6963348661
 20
-7.4480591447
 10
264.3157078748
 20
-8.6752130608
 10
263.8709501869
 20
-9.903725465
 10
263.364549068
 20
-11.1267260175
 10
262.7993365184
 20
-12.3373752032
 10
262.178473436
 20
-13.5289025807
 10
261.505431939
 20
-14.6946446457
 10
260.7839759485
 20
-15.8280820955
 10
260.0181401391
 20
-16.9228762883
 10
259.2122073751
 20
-17.9729046908
 10
258.3706847596
 20
-18.9722951183
 10
257.4982784284
 20
-19.9154585741
 10
256.5998672315
 20
-20.7971205055
 10
255.6804754488
 20
-21.6123503015
 10
254.7452446922
 20
-22.3565888662
 10
253.7994051512
 20
-23.0256741159
 10
252.8482463444
 20
-23.6158642542
 10
251.8970875376
 20
-24.1238586987
 10
250.9512479967
 20
-24.5468165382
 10
250.01601724
 20
-24.882372421
 10
249.0966254573
 20
-25.1286497825
 10
248.1982142605
 20
-25.2842713398
 10
247.3258079292
 20
-25.348366794
 10
246.4842853137
 20
-25.3205776972
 10
245.6783525498
 20
-25.2010594575
 10
244.9125167403
 20
-24.9904804693
 10
244.1910607498
 20
-24.6900183757
 10
243.5180192528
 20
-24.3013534826
 10
242.8971561704
 20
-23.8266593618
 10
242.3319436209
 20
-23.2685906953
 10
241.8255425019
 20
-22.6302684295
 10
241.380784814
 20
-21.9152623214
 10
241.0001578227
 20
-21.1275709753
 10
240.6857901484
 20
-20.2715994806
 10
240.4394398627
 20
-19.3521347771
 10
240.2624846564
 20
-18.3743188846
 10
240.1559141346
 20
-17.3436201459
 10
240.1203242831
 20
-16.2658026467
 10
240.1559141346
 20
-15.1468939795
 10
240.2624846564
 20
-13.9931515355
 10
240.4394398627
 20
-12.8110275105
 10
240.6857901484
 20
-11.6071328214
 10
241.0001578227
 20
-10.3882001358
 10
241.380784814
 20
-9.1610462197
 10
241.8255425019
 20
-7.9325338156
 10
242.3319436209
 20
-6.709533263
 10
242.8971561705
 20
-5.4988840774
 10
243.5180192528
 20
-4.3073566998
 10
244.1910607498
 20
-3.1416146349
 10
244.9125167403
 20
-2.008177185
 10
245.6783525498
 20
-0.9133829922
 10
246.4842853137
 20
0.1366454103
 10
247.3258079292
 20
1.1360358377
 10
248.1982142605
 20
2.0791992935
 10
249.0966254573
 20
2.9608612249
 10
250.01601724
 20
3.7760910209
 10
250.9512479967
 20
4.5203295857
 10
251.8970875376
 20
5.1894148353
 10
252.8482463444
 20
5.7796049737
 10
253.7994051512
 20
6.2875994181
 10
254.7452446922
 20
6.7105572577
 10
255.6804754488
 20
7.0461131405
 10
256.5998672315
 20
7.292390502
 10
257.4982784284
 20
7.4480120592
 10
258.3706847596
 20
7.5121075134
 10
259.2122073751
 20
7.4843184167
 10
260.0181401391
 20
7.364800177
 10
260.7839759485
 20
7.1542211887
 10
261.505431939
 20
6.8537590951
 10
262.178473436
 20
6.4650942021
 10
262.7993365184
 20
5.9904000812
 10
263.364549068
 20
5.4323314147
 10
263.8709501869
 20
4.7940091489
 10
264.3157078748
 20
4.0790030409
 10
264.6963348661
 20
3.2913116947
 10
265.0107025404
 20
2.4353402
 10
265.2570528261
 20
1.5158754966
 10
265.4340080325
 20
0.538059604
 10
265.5405785542
 20
-0.4926391346
 10
265.5761684058
 20
-1.5704566339
  0
LWPOLYLINE
  5
113
330
1F
100
AcDbEntity
  8
0
  6
Continuous
 62
     7
370
    25
100
AcDbPolyline
 90
       60
 70
   128
 43
0.0
 10
283.9255893776
 20
9.022438617
 10
283.8895362669
 20
8.2204888776
 10
283.7817854309
 20
7.3859995136
 10
283.6035577298
 20
6.528425623
 10
283.3568725545
 20
5.6574838606
 10
283.0445249467
 20
4.7830423445
 10
282.6700539296
 20
3.9150088467
 10
282.2377024093
 20
3.0632185334
 10
281.7523691015
 20
2.2373225292
 10
281.2195530264
 20
1.446678566
 10
280.6452912031
 20
0.7002449556
 10
280.0360902474
 20
0.0064790893
 10
279.3988526496
 20
-0.6267583886
 10
278.7407985664
 20
-1.1922926443
 10
278.0693840134
 20
-1.6837159488
 10
277.3922163858
 20
-2.0954602797
 10
276.7169682635
 20
-2.4228604092
 10
276.0512904774
 20
-2.662206763
 10
275.4027254228
 20
-2.8107874512
 10
274.7786216011
 20
-2.8669189954
 10
274.1860503578
 20
-2.8299654026
 10
273.6317257619
 20
-2.7003453719
 10
273.1219285326
 20
-2.47952755
 10
272.6624348762
 20
-2.170013891
 10
272.2584510395
 20
-1.7753113084
 10
271.9145543207
 20
-1.2998919401
 10
271.6346412071
 20
-0.7491424776
 10
271.4218832261
 20
-0.1293031324
 10
271.2786910106
 20
0.5526030682
 10
271.2066869857
 20
1.2888498543
 10
271.2066869857
 20
2.0710952557
 10
271.2786910106
 20
2.8904761194
 10
271.4218832261
 20
3.7377085329
 10
271.6346412071
 20
4.6031930143
 10
271.9145543207
 20
5.4771232787
 10
272.2584510395
 20
6.3495973469
 10
272.6624348762
 20
7.2107297391
 10
273.1219285326
 20
8.0507634813
 10
273.6317257619
 20
8.8601806555
 10
274.1860503578
 20
9.6298102416
 10
274.7786216011
 20
10.350932029
 10
275.4027254228
 20
11.0153754196
 10
276.0512904774
 20
11.6156120043
 10
276.7169682635
 20
12.1448408628
 10
277.3922163858
 20
12.5970656206
 10
278.0693840134
 20
12.9671623905
 10
278.7407985664
 20
13.2509378283
 10
279.3988526496
 20
13.4451766448
 10
280.0360902474
 20
13.5476780367
 10
280.6452912031
 20
13.5572806222
 10
281.2195530264
 20
13.4738756001
 10
281.7523691015
 20
13.2984079828
 10
282.2377024093
 20
13.0328658884
 10
282.6700539296
 20
12.6802580149
 10
283.0445249467
 20
12.2445795505
 10
283.3568725545
 20
11.7307669063
 10
283.6035577298
 20
11.1446417847
 10
283.7817854309
 20
10.4928452177
 10
283.8895362669
 20
9.7827623209
 10
283.9255893776
 20
9.022438617
  0
LWPOLYLINE
  5
114
330
1F
100
AcDbEntity
  8
0
  6
Continuous
 62
     7
370
    25
100
AcDbPolyline
 90
       60
 70
   128
 43
0.0
 10
234.4988253726
 20
-19.5110248912
 10
234.4627722619
 20
-20.3129746306
 10
234.355021426
 20
-21.1474639946
 10
234.1767937249
 20
-22.0050378852
 10
233.9301085496
 20
-22.8759796476
 10
233.6177609418
 20
-23.7504211637
 10
233.2432899246
 20
-24.6184546615
 10
232.8109384044
 20
-25.4702449748
 10
232.3256050966
 20
-26.296140979
 10
231.7927890215
 20
-27.0867849422
 10
231.2185271981
 20
-27.8332185526
 10
230.6093262424
 20
-28.5269844189
 10
229.9720886447
 20
-29.1602218968
 10
229.3140345615
 20
-29.7257561525
 10
228.6426200085
 20
-30.217179457
 10
227.9654523809
 20
-30.6289237879
 10
227.2902042585
 20
-30.9563239174
 10
226.6245264724
 20
-31.1956702712
 10
225.9759614179
 20
-31.3442509594
 10
225.3518575961
 20
-31.4003825036
 10
224.7592863528
 20
-31.3634289108
 10
224.2049617569
 20
-31.2338088801
 10
223.6951645277
 20
-31.0129910582
 10
223.2356708713
 20
-30.7034773992
 10
222.8316870346
 20
-30.3087748166
 10
222.4877903158
 20
-29.8333554483
 10
222.2078772022
 20
-29.2826059858
 10
221.9951192212
 20
-28.6627666406
 10
221.8519270057
 20
-27.98086044
 10
221.7799229808
 20
-27.2446136539
 10
221.7799229808
 20
-26.4623682525
 10
221.8519270057
 20
-25.6429873888
 10
221.9951192212
 20
-24.7957549753
 10
222.2078772022
 20
-23.9302704939
 10
222.4877903158
 20
-23.0563402295
 10
222.8316870346
 20
-22.1838661613
 10
223.2356708713
 20
-21.3227337691
 10
223.6951645277
 20
-20.4827000269
 10
224.2049617569
 20
-19.6732828527
 10
224.7592863528
 20
-18.9036532666
 10
225.3518575961
 20
-18.1825314792
 10
225.9759614179
 20
-17.5180880886
 10
226.6245264724
 20
-16.9178515039
 10
227.2902042585
 20
-16.3886226454
 10
227.9654523809
 20
-15.9363978876
 10
228.6426200085
 20
-15.5663011177
 10
229.3140345615
 20
-15.2825256799
 10
229.9720886447
 20
-15.0882868634
 10
230.6093262424
 20
-14.9857854715
 10
231.2185271981
 20
-14.976182886
 10
231.7927890215
 20
-15.0595879081
 10
232.3256050966
 20
-15.2350555254
 10
232.8109384044
 20
-15.5005976198
 10
233.2432899246
 20
-15.8532054933
 10
233.6177609418
 20
-16.2888839577
 10
233.9301085496
 20
-16.8026966019
 10
234.1767937249
 20
-17.3888217235
 10
234.355021426
 20
-18.0406182905
 10
234.4627722619
 20
-18.7507011873
 10
234.4988253726
 20
-19.5110248912
  0
LINE
  5
115
330
1F
100
AcDbEntity
  8
0
  6
Continuous
 62
     7
370
    25
100
AcDbLine
 10
274.2690601975
 20
-1.9879928411
 30
0.0
 11
274.2965971751
 21
-2.0036722343
 31
0.0
  0
LINE
  5
116
330
1F
100
AcDbEntity
  8
0
  6
Continuous
 62
     7
370
    25
100
AcDbLine
 10
249.5556781951
 20
-44.7928259706
 30
0.0
 11
249.5832151726
 21
-44.8085053638
 31
0.0
  0
LINE
  5
117
330
1F
100
AcDbEntity
  8
0
  6
Continuous
 62
     7
370
    25
100
AcDbLine
 10
262.1013791322
 20
5.369229875
 30
0.0
 11
262.054662353
 21
5.3964969643
 31
0.0
  0
LINE
  5
118
330
1F
100
AcDbEntity
  8
0
  6
Continuous
 62
     7
370
    25
100
AcDbLine
 10
245.0560438982
 20
-24.0491643567
 30
0.0
 11
245.119042189
 21
-24.0849974004
 31
0.0
  0
LINE
  5
119
330
1F
100
AcDbEntity
  8
0
  6
Continuous
 62
     7
370
    25
100
AcDbLine
 10
249.5556781951
 20
12.2833767802
 30
0.0
 11
249.5832151726
 21
12.267697387
 31
0.0
  0
LINE
  5
11A
330
1F
100
AcDbEntity
  8
0
  6
Continuous
 62
     7
370
    25
100
AcDbLine
 10
224.8422961926
 20
-30.5214563493
 30
0.0
 11
224.8698331701
 21
-30.5371357425
 31
0.0
  0
LWPOLYLINE
  5
11B
330
1F
100
AcDbEntity
  8
0
  6
Continuous
 62
     1
370
    25
100
AcDbPolyline
 90
       53
 70
   128
 43
0.0
 10
289.6177989661
 20
11.4920731553
 10
289.5825020005
 20
9.6296616755
 10
289.4766801991
 20
7.7301429447
 10
289.3005407131
 20
5.7972353598
 10
289.0544283439
 20
3.8347226783
 10
288.7388248678
 20
1.8464466109
 10
288.3543480936
 20
-0.1637006986
 10
287.9017506526
 20
-2.1917842925
 10
287.3819185255
 20
-4.2338341018
 10
286.7958693081
 20
-6.2858527183
 10
286.1447502193
 20
-8.3438232191
 10
285.4298358553
 20
-10.4037170303
 10
284.6525256946
 20
-12.461501813
 10
283.8143413582
 20
-14.5131493569
 10
282.9169236314
 20
-16.5546434655
 10
281.9620292515
 20
-18.5819878184
 10
280.9515274691
 20
-20.5912137936
 10
279.8873963889
 20
-22.5783882371
 10
278.7717190975
 20
-24.5396211615
 10
277.6066795855
 20
-26.4710733612
 10
276.3945584725
 20
-28.368963928
 10
275.1377285426
 20
-30.2295776518
 10
273.8386500992
 20
-32.0492722939
 10
272.4998661495
 20
-33.8244857167
 10
271.1239974259
 20
-35.5517428565
 10
269.7137372561
 20
-37.2276625263
 10
268.2718462905
 20
-38.8489640346
 10
266.8011470985
 20
-40.4124736077
 10
265.3045186428
 20
-41.9151306021
 10
263.7848906438
 20
-43.3539934962
 10
262.2452378448
 20
-44.7262456483
 10
260.6885741883
 20
-46.0292008104
 10
259.1179469166
 20
-47.2603083865
 10
257.5364306064
 20
-48.4171584257
 10
255.94712115
 20
-49.4974863399
 10
254.3531296954
 20
-50.4991773363
 10
252.7575765558
 20
-51.4202705578
 10
251.1635851012
 20
-52.2589629212
 10
249.5742756448
 20
-53.0136126468
 10
247.9927593346
 20
-53.6827424722
 10
246.4221320629
 20
-54.2650425445
 10
244.8654684065
 20
-54.7593729839
 10
243.3258156074
 20
-55.1647661154
 10
241.8061876084
 20
-55.4804283628
 10
240.3095591527
 20
-55.7057418025
 10
238.8388599607
 20
-55.8402653728
 10
237.3969689951
 20
-55.8837357377
 10
235.9867088253
 20
-55.8360678016
 10
234.6108401017
 20
-55.697354877
 10
233.272056152
 20
-55.4678685008
 10
231.9729777087
 20
-55.1480579034
 10
230.7161477787
 20
-54.7385491291
 10
229.9112579408
 20
-54.4196360902
  0
LWPOLYLINE
  5
11C
330
1F
100
AcDbEntity
  8
0
  6
Continuous
 62
     1
370
    25
100
AcDbPolyline
 90
       18
 70
   128
 43
0.0
 10
280.7477864407
 20
33.7243387737
 10
280.9515274691
 20
33.5694960146
 10
281.9620292515
 20
32.7269705633
 10
282.9169236314
 20
31.8021237942
 10
283.8143413582
 20
30.7967661381
 10
284.6525256946
 20
29.71286563
 10
285.4298358553
 20
28.5525440558
 10
286.1447502193
 20
27.3180727997
 10
286.7958693081
 20
26.011868397
 10
287.3819185255
 20
24.6364878042
 10
287.9017506526
 20
23.1946233935
 10
288.3543480936
 20
21.6890976821
 10
288.7388248678
 20
20.1228578072
 10
289.0544283439
 20
18.4989697571
 10
289.3005407131
 20
16.8206123688
 10
289.4766801991
 20
15.0910711056
 10
289.5825020005
 20
13.313731626
 10
289.6177989661
 20
11.4920731553
  0
LWPOLYLINE
  5
11D
330
1F
100
AcDbEntity
  8
0
  6
Continuous
 62
     1
370
    25
100
AcDbPolyline
 90
       18
 70
   128
 43
0.0
 10
296.688866778
 20
7.4100325962
 10
296.6535698124
 20
9.2316910669
 10
296.547748011
 20
11.0090305465
 10
296.371608525
 20
12.7385718096
 10
296.1254961557
 20
14.416929198
 10
295.8098926797
 20
16.0408172481
 10
295.4254159054
 20
17.607057123
 10
294.9728184644
 20
19.1125828344
 10
294.4529863373
 20
20.5544472451
 10
293.86693712
 20
21.9298278379
 10
293.2158180312
 20
23.2360322406
 10
292.5009036672
 20
24.4705034967
 10
291.7235935065
 20
25.6308250708
 10
290.8854091701
 20
26.714725579
 10
289.9879914433
 20
27.7200832351
 10
289.0330970634
 20
28.6449300042
 10
288.022595281
 20
29.4874554555
 10
287.8512770046
 20
29.617974469
  0
LWPOLYLINE
  5
11E
330
1F
100
AcDbEntity
  8
0
  6
Continuous
 62
     1
370
    25
100
AcDbPolyline
 90
       53
 70
   128
 43
0.0
 10
236.8546188417
 20
-58.4467390244
 10
237.7872155905
 20
-58.8205896882
 10
239.0440455205
 20
-59.2300984625
 10
240.3431239639
 20
-59.5499090599
 10
241.6819079136
 20
-59.7793954361
 10
243.0577766372
 20
-59.9181083607
 10
244.468036807
 20
-59.9657762968
 10
245.9099277725
 20
-59.922305932
 10
247.3806269646
 20
-59.7877823616
 10
248.8772554203
 20
-59.5624689219
 10
250.3968834193
 20
-59.2468066745
 10
251.9365362183
 20
-58.841413543
 10
253.4931998748
 20
-58.3470831036
 10
255.0638271465
 20
-57.7647830313
 10
256.6453434567
 20
-57.0956532059
 10
258.234652913
 20
-56.3410034803
 10
259.8286443676
 20
-55.502311117
 10
261.4241975073
 20
-54.5812178954
 10
263.0181889619
 20
-53.579526899
 10
264.6074984183
 20
-52.4991989849
 10
266.1890147285
 20
-51.3423489456
 10
267.7596420002
 20
-50.1112413695
 10
269.3163056566
 20
-48.8082862074
 10
270.8559584557
 20
-47.4360340553
 10
272.3755864547
 20
-45.9971711612
 10
273.8722149104
 20
-44.4945141668
 10
275.3429141024
 20
-42.9310045937
 10
276.784805068
 20
-41.3097030854
 10
278.1950652378
 20
-39.6337834156
 10
279.5709339614
 20
-37.9065262758
 10
280.9097179111
 20
-36.1313128531
 10
282.2087963544
 20
-34.3116182109
 10
283.4656262844
 20
-32.4510044871
 10
284.6777473974
 20
-30.5531139203
 10
285.8427869094
 20
-28.6216617206
 10
286.9584642008
 20
-26.6604287962
 10
288.022595281
 20
-24.6732543527
 10
289.0330970634
 20
-22.6640283775
 10
289.9879914433
 20
-20.6366840246
 10
290.8854091701
 20
-18.595189916
 10
291.7235935065
 20
-16.5435423721
 10
292.5009036672
 20
-14.4857575894
 10
293.2158180312
 20
-12.4258637782
 10
293.86693712
 20
-10.3678932774
 10
294.4529863373
 20
-8.315874661
 10
294.9728184644
 20
-6.2738248516
 10
295.4254159054
 20
-4.2457412577
 10
295.8098926797
 20
-2.2355939482
 10
296.1254961557
 20
-0.2473178808
 10
296.371608525
 20
1.7151948007
 10
296.547748011
 20
3.6481023856
 10
296.6535698124
 20
5.5476211164
 10
296.688866778
 20
7.4100325962
  0
LWPOLYLINE
  5
11F
330
1F
100
AcDbEntity
  8
0
  6
Continuous
 62
     1
370
    25
100
AcDbPolyline
 90
       31
 70
   128
 43
0.0
 10
282.2837334005
 20
11.8598749495
 10
282.2687351281
 20
11.8686012678
 10
281.7957260632
 20
12.083665093
 10
281.278363041
 20
12.2088981906
 10
280.7231522015
 20
12.2427256818
 10
280.1370756432
 20
12.1847221661
 10
279.5275036189
 20
12.0356170716
 10
278.9021018505
 20
11.7972854812
 10
278.2687351281
 20
11.472724553
 10
277.6353684056
 20
11.066015829
 10
277.0099666372
 20
10.5822739073
 10
276.4003946129
 20
10.0275821234
 10
275.8143180547
 20
9.4089160481
 10
275.2591072152
 20
8.7340557665
 10
274.7417441929
 20
8.011488038
 10
274.2687351281
 20
7.2502995712
 10
273.8460283841
 20
6.4600627525
 10
273.4789397435
 20
5.6507152687
 10
273.172085559
 20
4.8324351337
 10
272.9293247
 20
4.0155126952
 10
272.7537100251
 20
3.2102212267
 10
272.6474499908
 20
2.4266877358
 10
272.6118808786
 20
1.6747656106
 10
272.6474499908
 20
0.9639107083
 10
272.7537100251
 20
0.3030624415
 10
272.9293247
 20
-0.2994686392
 10
273.172085559
 20
-0.8361053559
 10
273.4789397435
 20
-1.3000991907
 10
273.8460283841
 20
-1.6856151517
 10
274.2687351281
 20
-1.987805152
 10
274.2690601975
 20
-1.9879928411
  0
LWPOLYLINE
  5
120
330
1F
100
AcDbEntity
  8
0
  6
Continuous
 62
     1
370
    25
100
AcDbPolyline
 90
       31
 70
   128
 43
0.0
 10
257.570351398
 20
-30.94495818
 10
257.5553531256
 20
-30.9362318617
 10
257.0823440608
 20
-30.7211680365
 10
256.5649810385
 20
-30.5959349389
 10
256.009770199
 20
-30.5621074477
 10
255.4236936407
 20
-30.6201109634
 10
254.8141216165
 20
-30.7692160579
 10
254.188719848
 20
-31.0075476483
 10
253.5553531256
 20
-31.3321085765
 10
252.9219864032
 20
-31.7388173005
 10
252.2965846348
 20
-32.2225592222
 10
251.6870126105
 20
-32.7772510061
 10
251.1009360522
 20
-33.3959170814
 10
250.5457252127
 20
-34.070777363
 10
250.0283621904
 20
-34.7933450915
 10
249.5553531256
 20
-35.5545335583
 10
249.1326463816
 20
-36.344770377
 10
248.7655577411
 20
-37.1541178608
 10
248.4587035565
 20
-37.9723979958
 10
248.2159426975
 20
-38.7893204343
 10
248.0403280226
 20
-39.5946119028
 10
247.9340679883
 20
-40.3781453937
 10
247.8984988761
 20
-41.1300675189
 10
247.9340679883
 20
-41.8409224213
 10
248.0403280226
 20
-42.501770688
 10
248.2159426975
 20
-43.1043017687
 10
248.4587035565
 20
-43.6409384854
 10
248.7655577411
 20
-44.1049323202
 10
249.1326463816
 20
-44.4904482812
 10
249.5553531256
 20
-44.7926382815
 10
249.5556781951
 20
-44.7928259706
  0
ARC
  5
121
330
1F
100
AcDbEntity
  8
0
  6
Continuous
 62
     1
370
    25
100
AcDbCircle
 10
292.9901049619
 20
-3.5576155975
 30
0.0
 40
13.45426567302409
100
AcDbArc
 50
137.416586734
 51
162.769180063
  0
ARC
  5
122
330
1F
100
AcDbEntity
  8
0
  6
Continuous
 62
     1
370
    25
100
AcDbCircle
 10
268.2767229595
 20
-46.362448727
 30
0.0
 40
13.45426567302415
100
AcDbArc
 50
137.416586734
 51
162.769180063
  0
LWPOLYLINE
  5
123
330
1F
100
AcDbEntity
  8
0
  6
Continuous
 62
     1
370
    25
100
AcDbPolyline
 90
       43
 70
   128
 43
0.0
 10
262.054662353
 20
5.3964969643
 10
261.5531104684
 20
5.6537232948
 10
260.842676809
 20
5.9201631957
 10
260.0894782365
 20
6.0971305904
 10
259.2979348196
 20
6.1835869638
 10
258.47269165
 20
6.1790249555
 10
257.6185915825
 20
6.0834713371
 10
256.7406468162
 20
5.8974868555
 10
255.8440094799
 20
5.6221629413
 10
254.933941398
 20
5.2591153048
 10
254.015783212
 20
4.810474454
 10
253.0949230392
 20
4.2788731917
 10
252.1767648532
 20
3.6674311654
 10
251.2666967714
 20
2.9797365603
 10
250.370059435
 20
2.2198250416
 10
249.4921146687
 20
1.3921560722
 10
248.6380146013
 20
0.5015867429
 10
247.8127714316
 20
-0.4466567314
 10
247.0212280147
 20
-1.447009681
 10
246.2680294422
 20
-2.4936016371
 10
245.5575957828
 20
-3.5802907817
 10
244.8940961436
 20
-4.700699991
 10
244.2814242043
 20
-5.8482542582
 10
243.7231753676
 20
-7.0162192785
 10
243.2226256596
 20
-8.1977409688
 10
242.7827125049
 20
-9.38588569
 10
242.406017489
 20
-10.5736809364
 10
242.0947512079
 20
-11.7541562532
 10
241.850740296
 20
-12.9203841419
 10
241.6754167063
 20
-14.0655207134
 10
241.5698093074
 20
-15.1828458511
 10
241.5345378454
 20
-16.2658026467
 10
241.5698093074
 20
-17.3080358791
 10
241.6754167063
 20
-18.3034293094
 10
241.850740296
 20
-19.246141573
 10
242.0947512079
 20
-20.1306404595
 10
242.406017489
 20
-20.9517353779
 10
242.7827125049
 20
-21.7046078165
 10
243.2226256596
 20
-22.3848396205
 10
243.7231753676
 20
-22.9884389194
 10
244.2814242043
 20
-23.5118635522
 10
244.8940961436
 20
-23.9520418553
 10
245.0560438982
 20
-24.0491643567
  0
LWPOLYLINE
  5
124
330
1F
100
AcDbEntity
  8
0
  6
Continuous
 62
     1
370
    25
100
AcDbPolyline
 90
       31
 70
   128
 43
0.0
 10
249.313867294
 20
-24.6333550106
 10
249.1658190198
 20
-24.2126810187
 10
248.9218081079
 20
-23.3281821321
 10
248.7464845182
 20
-22.3854698685
 10
248.6408771193
 20
-21.3900764382
 10
248.6056056573
 20
-20.3478432058
 10
248.6408771193
 20
-19.2648864102
 10
248.7464845182
 20
-18.1475612725
 10
248.9218081079
 20
-17.002424701
 10
249.1658190198
 20
-15.8361968123
 10
249.4770853009
 20
-14.6557214955
 10
249.8537803168
 20
-13.4679262491
 10
250.2936934714
 20
-12.2797815279
 10
250.7942431795
 20
-11.0982598376
 10
251.3524920162
 20
-9.9302948173
 10
251.9651639554
 20
-8.7827405501
 10
252.6286635946
 20
-7.6623313408
 10
253.3390972541
 20
-6.5756421962
 10
254.0922958266
 20
-5.5290502402
 10
254.8838392435
 20
-4.5286972905
 10
255.7090824131
 20
-3.5804538162
 10
256.5631824805
 20
-2.6898844869
 10
257.4411272469
 20
-1.8622155176
 10
258.3377645832
 20
-1.1023039988
 10
259.2478326651
 20
-0.4146093937
 10
260.1659908511
 20
0.1968326325
 10
261.0868510239
 20
0.7284338949
 10
262.0050092099
 20
1.1770747457
 10
262.9150772917
 20
1.5401223822
 10
263.811714628
 20
1.8154462963
 10
264.67873031
 20
1.999647412
  0
LWPOLYLINE
  5
125
330
1F
100
AcDbEntity
  8
0
  6
Continuous
 62
     1
370
    25
100
AcDbPolyline
 90
       31
 70
   128
 43
0.0
 10
257.570351398
 20
26.1312445708
 10
257.5553531256
 20
26.1399708892
 10
257.0823440608
 20
26.3550347143
 10
256.5649810385
 20
26.4802678119
 10
256.009770199
 20
26.5140953031
 10
255.4236936407
 20
26.4560917874
 10
254.8141216165
 20
26.3069866929
 10
254.188719848
 20
26.0686551025
 10
253.5553531256
 20
25.7440941743
 10
252.9219864032
 20
25.3373854503
 10
252.2965846348
 20
24.8536435286
 10
251.6870126105
 20
24.2989517447
 10
251.1009360522
 20
23.6802856694
 10
250.5457252127
 20
23.0054253878
 10
250.0283621904
 20
22.2828576593
 10
249.5553531256
 20
21.5216691925
 10
249.1326463816
 20
20.7314323738
 10
248.7655577411
 20
19.92208489
 10
248.4587035566
 20
19.103804755
 10
248.2159426975
 20
18.2868823165
 10
248.0403280226
 20
17.481590848
 10
247.9340679883
 20
16.6980573571
 10
247.8984988761
 20
15.9461352319
 10
247.9340679883
 20
15.2352803296
 10
248.0403280226
 20
14.5744320628
 10
248.2159426975
 20
13.9719009821
 10
248.4587035566
 20
13.4352642654
 10
248.7655577411
 20
12.9712704306
 10
249.1326463816
 20
12.5857544697
 10
249.5553531256
 20
12.2835644693
 10
249.5556781951
 20
12.2833767802
  0
LWPOLYLINE
  5
126
330
1F
100
AcDbEntity
  8
0
  6
Continuous
 62
     1
370
    25
100
AcDbPolyline
 90
       31
 70
   128
 43
0.0
 10
232.8569693956
 20
-16.6735885587
 10
232.8419711231
 20
-16.6648622404
 10
232.3689620583
 20
-16.4497984152
 10
231.851599036
 20
-16.3245653176
 10
231.2963881965
 20
-16.2907378264
 10
230.7103116383
 20
-16.3487413421
 10
230.100739614
 20
-16.4978464366
 10
229.4753378456
 20
-16.736178027
 10
228.8419711231
 20
-17.0607389552
 10
228.2086044007
 20
-17.4674476792
 10
227.5832026323
 20
-17.9511896009
 10
226.973630608
 20
-18.5058813848
 10
226.3875540497
 20
-19.1245474601
 10
225.8323432102
 20
-19.7994077417
 10
225.314980188
 20
-20.5219754702
 10
224.8419711231
 20
-21.283163937
 10
224.4192643791
 20
-22.0734007557
 10
224.0521757386
 20
-22.8827482395
 10
223.7453215541
 20
-23.7010283745
 10
223.5025606951
 20
-24.517950813
 10
223.3269460202
 20
-25.3232422815
 10
223.2206859858
 20
-26.1067757724
 10
223.1851168736
 20
-26.8586978976
 10
223.2206859858
 20
-27.5695527999
 10
223.3269460202
 20
-28.2304010667
 10
223.5025606951
 20
-28.8329321474
 10
223.7453215541
 20
-29.3695688641
 10
224.0521757386
 20
-29.8335626989
 10
224.4192643791
 20
-30.2190786599
 10
224.8419711231
 20
-30.5212686602
 10
224.8422961926
 20
-30.5214563493
  0
ARC
  5
127
330
1F
100
AcDbEntity
  8
0
  6
Continuous
 62
     1
370
    25
100
AcDbCircle
 10
268.2767229595
 20
10.7137540238
 30
0.0
 40
13.45426567302594
100
AcDbArc
 50
137.416586734
 51
162.769180063
  0
ARC
  5
128
330
1F
100
AcDbEntity
  8
0
  6
Continuous
 62
     1
370
    25
100
AcDbCircle
 10
243.563340957
 20
-32.0910791057
 30
0.0
 40
13.45426567302486
100
AcDbArc
 50
137.416586734
 51
162.769180063
  0
ENDSEC
  0
SECTION
  2
OBJECTS
  0
DICTIONARY
  5
C
330
0
100
AcDbDictionary
281
     1
  3
ACAD_GROUP
350
D
  3
ACAD_LAYOUT
350
1A
  3
ACAD_MLINESTYLE
350
17
  3
ACAD_PLOTSETTINGS
350
19
  3
ACAD_PLOTSTYLENAME
350
E
  3
ACAD_SCALELIST
350
47
  3
DWGPROPS
350
129
  0
DICTIONARY
  5
D
102
{ACAD_REACTORS
330
C
102
}
330
C
100
AcDbDictionary
281
     1
  0
DICTIONARY
  5
1A
102
{ACAD_REACTORS
330
C
102
}
330
C
100
AcDbDictionary
281
     1
  3
Layout1
350
1E
  3
Layout2
350
26
  3
Model
350
22
  0
DICTIONARY
  5
17
102
{ACAD_REACTORS
330
C
102
}
330
C
100
AcDbDictionary
281
     1
  3
Standard
350
18
  0
DICTIONARY
  5
19
102
{ACAD_REACTORS
330
C
102
}
330
C
100
AcDbDictionary
281
     1
  0
ACDBDICTIONARYWDFLT
  5
E
102
{ACAD_REACTORS
330
C
102
}
330
C
100
AcDbDictionary
281
     1
  3
Normal
350
F
100
AcDbDictionaryWithDefault
340
F
  0
DICTIONARY
  5
47
102
{ACAD_REACTORS
330
C
102
}
330
C
100
AcDbDictionary
281
     1
  3
A0
350
48
  3
A1
350
49
  3
A2
350
4A
  3
A3
350
4B
  3
A4
350
4C
  3
A5
350
4D
  3
A6
350
4E
  3
A7
350
4F
  3
A8
350
50
  3
A9
350
51
  3
B0
350
52
  3
B1
350
53
  3
B2
350
54
  3
B3
350
55
  3
B4
350
56
  3
B5
350
57
  3
B6
350
58
  3
B7
350
59
  3
B8
350
5A
  3
B9
350
5B
  3
C0
350
5C
  3
C1
350
5D
  3
C2
350
5E
  3
C3
350
5F
  3
C4
350
60
  3
C5
350
61
  3
C6
350
62
  3
C7
350
63
  3
C8
350
64
  3
C9
350
65
  3
D0
350
66
  3
D1
350
67
  3
D2
350
68
  0
XRECORD
  5
129
102
{ACAD_REACTORS
330
C
102
}
330
C
100
AcDbXrecord
280
     1
  1
DWGPROPS COOKIE
  2

  3

  4

  6

  7

  8
b.kav
  9

300
=
301
=
302
=
303
=
304
=
305
=
306
=
307
=
308
=
309
=
 40
0.0
 41
2459741.46361493
 42
2459741.463616898
  1

 90
        0
  0
LAYOUT
  5
1E
102
{ACAD_REACTORS
330
1A
102
}
330
1A
100
AcDbPlotSettings
  1

  2
none_device
  4

  6

 40
0.0
 41
0.0
 42
0.0
 43
0.0
 44
0.0
 45
0.0
 46
0.0
 47
0.0
 48
0.0
 49
0.0
140
0.0
141
0.0
142
1.0
143
1.0
 70
   688
 72
     1
 73
     0
 74
     5
  7

 75
    16
147
1.0
148
0.0
149
0.0
100
AcDbLayout
  1
Layout1
 70
     1
 71
     1
 10
0.0
 20
0.0
 11
420.0
 21
297.0
 12
0.0
 22
0.0
 32
0.0
 14
1.0000000000E+20
 24
1.0000000000E+20
 34
1.0000000000E+20
 15
-1.0000000000E+20
 25
-1.0000000000E+20
 35
-1.0000000000E+20
146
0.0
 13
0.0
 23
0.0
 33
0.0
 16
1.0
 26
0.0
 36
0.0
 17
0.0
 27
1.0
 37
0.0
 76
     0
330
1B
  0
LAYOUT
  5
26
102
{ACAD_REACTORS
330
1A
102
}
330
1A
100
AcDbPlotSettings
  1

  2
none_device
  4

  6

 40
0.0
 41
0.0
 42
0.0
 43
0.0
 44
0.0
 45
0.0
 46
0.0
 47
0.0
 48
0.0
 49
0.0
140
0.0
141
0.0
142
1.0
143
1.0
 70
   688
 72
     1
 73
     0
 74
     5
  7

 75
    16
147
1.0
148
0.0
149
0.0
100
AcDbLayout
  1
Layout2
 70
     1
 71
     2
 10
0.0
 20
0.0
 11
0.0
 21
0.0
 12
0.0
 22
0.0
 32
0.0
 14
0.0
 24
0.0
 34
0.0
 15
0.0
 25
0.0
 35
0.0
146
0.0
 13
0.0
 23
0.0
 33
0.0
 16
1.0
 26
0.0
 36
0.0
 17
0.0
 27
1.0
 37
0.0
 76
     0
330
23
  0
LAYOUT
  5
22
102
{ACAD_REACTORS
330
1A
102
}
330
1A
100
AcDbPlotSettings
  1

  2
none_device
  4
Letter_(8.50_x_11.00_Inches)
  6

 40
6.35
 41
6.35
 42
6.35000508
 43
6.35000508
 44
215.9
 45
279.4
 46
0.0
 47
0.0
 48
0.0
 49
0.0
140
0.0
141
0.0
142
1.0
143
1.0
 70
  1712
 72
     1
 73
     0
 74
     0
  7

 75
     0
147
1.0
148
0.0
149
0.0
100
AcDbLayout
  1
Model
 70
     1
 71
     0
 10
0.0
 20
0.0
 11
279.4
 21
215.9
 12
0.0
 22
0.0
 32
0.0
 14
0.0
 24
0.0
 34
0.0
 15
279.4
 25
215.9
 35
0.0
146
0.0
 13
0.0
 23
0.0
 33
0.0
 16
1.0
 26
0.0
 36
0.0
 17
0.0
 27
1.0
 37
0.0
 76
     0
330
1F
331
29
  0
MLINESTYLE
  5
18
102
{ACAD_REACTORS
330
17
102
}
330
17
100
AcDbMlineStyle
  2
Standard
 70
     0
  3

 62
   256
 51
90.0
 52
90.0
 71
     2
 49
0.5
 62
   256
  6
BYLAYER
 49
-0.5
 62
   256
  6
BYLAYER
  0
ACDBPLACEHOLDER
  5
F
102
{ACAD_REACTORS
330
E
102
}
330
E
  0
SCALE
  5
48
102
{ACAD_REACTORS
330
47
102
}
330
47
100
AcDbScale
 70
     0
300
1:1
140
1.0
141
1.0
290
     1
  0
SCALE
  5
49
102
{ACAD_REACTORS
330
47
102
}
330
47
100
AcDbScale
 70
     0
300
1:2
140
1.0
141
2.0
290
     0
  0
SCALE
  5
4A
102
{ACAD_REACTORS
330
47
102
}
330
47
100
AcDbScale
 70
     0
300
1:4
140
1.0
141
4.0
290
     0
  0
SCALE
  5
4B
102
{ACAD_REACTORS
330
47
102
}
330
47
100
AcDbScale
 70
     0
300
1:5
140
1.0
141
5.0
290
     0
  0
SCALE
  5
4C
102
{ACAD_REACTORS
330
47
102
}
330
47
100
AcDbScale
 70
     0
300
1:8
140
1.0
141
8.0
290
     0
  0
SCALE
  5
4D
102
{ACAD_REACTORS
330
47
102
}
330
47
100
AcDbScale
 70
     0
300
1:10
140
1.0
141
10.0
290
     0
  0
SCALE
  5
4E
102
{ACAD_REACTORS
330
47
102
}
330
47
100
AcDbScale
 70
     0
300
1:16
140
1.0
141
16.0
290
     0
  0
SCALE
  5
4F
102
{ACAD_REACTORS
330
47
102
}
330
47
100
AcDbScale
 70
     0
300
1:20
140
1.0
141
20.0
290
     0
  0
SCALE
  5
50
102
{ACAD_REACTORS
330
47
102
}
330
47
100
AcDbScale
 70
     0
300
1:30
140
1.0
141
30.0
290
     0
  0
SCALE
  5
51
102
{ACAD_REACTORS
330
47
102
}
330
47
100
AcDbScale
 70
     0
300
1:40
140
1.0
141
40.0
290
     0
  0
SCALE
  5
52
102
{ACAD_REACTORS
330
47
102
}
330
47
100
AcDbScale
 70
     0
300
1:50
140
1.0
141
50.0
290
     0
  0
SCALE
  5
53
102
{ACAD_REACTORS
330
47
102
}
330
47
100
AcDbScale
 70
     0
300
1:100
140
1.0
141
100.0
290
     0
  0
SCALE
  5
54
102
{ACAD_REACTORS
330
47
102
}
330
47
100
AcDbScale
 70
     0
300
2:1
140
2.0
141
1.0
290
     0
  0
SCALE
  5
55
102
{ACAD_REACTORS
330
47
102
}
330
47
100
AcDbScale
 70
     0
300
4:1
140
4.0
141
1.0
290
     0
  0
SCALE
  5
56
102
{ACAD_REACTORS
330
47
102
}
330
47
100
AcDbScale
 70
     0
300
8:1
140
8.0
141
1.0
290
     0
  0
SCALE
  5
57
102
{ACAD_REACTORS
330
47
102
}
330
47
100
AcDbScale
 70
     0
300
10:1
140
10.0
141
1.0
290
     0
  0
SCALE
  5
58
102
{ACAD_REACTORS
330
47
102
}
330
47
100
AcDbScale
 70
     0
300
100:1
140
100.0
141
1.0
290
     0
  0
SCALE
  5
59
102
{ACAD_REACTORS
330
47
102
}
330
47
100
AcDbScale
 70
     0
300
1/128" = 1'-0"
140
0.0078125
141
12.0
290
     0
  0
SCALE
  5
5A
102
{ACAD_REACTORS
330
47
102
}
330
47
100
AcDbScale
 70
     0
300
1/64" = 1'-0"
140
0.015625
141
12.0
290
     0
  0
SCALE
  5
5B
102
{ACAD_REACTORS
330
47
102
}
330
47
100
AcDbScale
 70
     0
300
1/32" = 1'-0"
140
0.03125
141
12.0
290
     0
  0
SCALE
  5
5C
102
{ACAD_REACTORS
330
47
102
}
330
47
100
AcDbScale
 70
     0
300
1/16" = 1'-0"
140
0.0625
141
12.0
290
     0
  0
SCALE
  5
5D
102
{ACAD_REACTORS
330
47
102
}
330
47
100
AcDbScale
 70
     0
300
3/32" = 1'-0"
140
0.09375
141
12.0
290
     0
  0
SCALE
  5
5E
102
{ACAD_REACTORS
330
47
102
}
330
47
100
AcDbScale
 70
     0
300
1/8" = 1'-0"
140
0.125
141
12.0
290
     0
  0
SCALE
  5
5F
102
{ACAD_REACTORS
330
47
102
}
330
47
100
AcDbScale
 70
     0
300
3/16" = 1'-0"
140
0.1875
141
12.0
290
     0
  0
SCALE
  5
60
102
{ACAD_REACTORS
330
47
102
}
330
47
100
AcDbScale
 70
     0
300
1/4" = 1'-0"
140
0.25
141
12.0
290
     0
  0
SCALE
  5
61
102
{ACAD_REACTORS
330
47
102
}
330
47
100
AcDbScale
 70
     0
300
3/8" = 1'-0"
140
0.375
141
12.0
290
     0
  0
SCALE
  5
62
102
{ACAD_REACTORS
330
47
102
}
330
47
100
AcDbScale
 70
     0
300
1/2" = 1'-0"
140
0.5
141
12.0
290
     0
  0
SCALE
  5
63
102
{ACAD_REACTORS
330
47
102
}
330
47
100
AcDbScale
 70
     0
300
3/4" = 1'-0"
140
0.75
141
12.0
290
     0
  0
SCALE
  5
64
102
{ACAD_REACTORS
330
47
102
}
330
47
100
AcDbScale
 70
     0
300
1" = 1'-0"
140
1.0
141
12.0
290
     0
  0
SCALE
  5
65
102
{ACAD_REACTORS
330
47
102
}
330
47
100
AcDbScale
 70
     0
300
1-1/2" = 1'-0"
140
1.5
141
12.0
290
     0
  0
SCALE
  5
66
102
{ACAD_REACTORS
330
47
102
}
330
47
100
AcDbScale
 70
     0
300
3" = 1'-0"
140
3.0
141
12.0
290
     0
  0
SCALE
  5
67
102
{ACAD_REACTORS
330
47
102
}
330
47
100
AcDbScale
 70
     0
300
6" = 1'-0"
140
6.0
141
12.0
290
     0
  0
SCALE
  5
68
102
{ACAD_REACTORS
330
47
102
}
330
47
100
AcDbScale
 70
     0
300
1'-0" = 1'-0"
140
12.0
141
12.0
290
     0
  0
ENDSEC
  0
EOF
